Oops, an error
Loading. Please wait.
We have an official Wake Me Up When September Ends tab made by UG professional guitarists. Check out the tab »
×
104,430 views 111 this week
14 commentsread comments
1 2 3 4 5
x 56
add to favorites
launch autoscroll
font size
0
reset
guitar tuner
backing track
0:00
0:00
Autoscroll
slow
fast
+/-
esc
set tempo
stop
Author
------------------------------------------------------------------
                                << GREEN DAY >> - WAKE ME UP WHEN SEPTEMBER ENDS (AMERICAN IDIOT) 
                     ------------------------------------------------------------------

[ Tabber: LUIZ MANZANO (BRASIL) ]
[ e-mail: lukdeluca@yahoo.com.br ]


[Intro]

(guitar and vocal)
(>> continuation)

"Wake me up when september ends..."
G|---------------------------------------|
D|---------------------------------------|
A|3333333333333333----------------2/10---|
E|----------------3333333333333333-------| >>

>> "Ring out the bells again..."
G|-------------------------------9-------7---|
D|-----12------------12-------9-------7------|
A|10-10--10-10-10--99--999--77-77---55-55----|
E|-------------------------------------------| >>

>> "Wake me up when september ends..."
G|----------------------------------------|
D|----------------------------------------|
A|3333333333333333------------------------|
E|----------------3333333333333333-2222---| >>

>> "Here comes the rain again..."
G|-------------------------------------------------------7--7-------|
D|------------------------------------------------------------------|
A|-------2222222-333333-----------------2222222-333333-55-55-5/10---|
E|0000000--------------3-33-2-22-0000000----------------------------| >>

>> "As my memory rests..." 
G|-------------------------------9-------7---|
D|-----12------------12-------9-------7------|
A|10-10--10-10-10--99--999--77-77---55-55----|
E|-------------------------------------------| >>

>> "Wake me up when september ends..."
G| ----------------------------------------|
D|----------------------------------------|
A|3333333333333333------------------------|
E|----------------3333333333333333-2222---| >>


>> [Solo]...
G|------------------------------------------------------7777777777777777777777777777777---|
D|----------------------5-55-4-44---------------------------------------------------------|
A|-------2222222-333333-----------------2222222-333333--5555555555555555555555555555555---|
E|0000000------------------------0000000--------------------------------------------------| >>

(only guitar and vocal)

>> "Wake me up when september ends..."
G|---------------------------------------|
D|---------------------------------------|
A|3333333333333333----------------2/10---|
E|----------------3333333333333333-------| >>

>> "like my fathers come to pass..."
G|-------------------------------9-------7---|
D|-----12------------12-------9-------7------|
A|10-10--10-10-10--99--999--77-77---55-55----|
E|-------------------------------------------| >>

>> "Wake me up when september ends..." (repeat 3x)
G|--------------------------------------|
D|--------------------------------------|
A|3333333333333333------------------0---|
E|----------------333333333333333-35----|



************************************

| /  Slide up

************************************
Suggest correction
comments
print report bad tab
14 comments total. Showing first comments.
-2 reply
DarkSound 30 Oct 29, 2005 01:35 PM

ha this is alright

0 reply
BassSurfer 80 Apr 02, 2006 03:58 PM

this is good gc punk just sucks at bass

+4 reply
Robnfguitarplay 42 Jun 23, 2006 11:12 AM

Hmm you are making this song harder to play then what it is by adding more notes then there should be.

Riff 4 (2:14)
G|--------------------------------------------------------------------------|
D|--------------------------------------------------------------------------|
A|-----------------2-2-2-2-2-2-2-2-3-3-3-3-3-3-3-3--------------------------|
E|-0-0-0-0-0-0-0-0---------------------------------3-3-3-3-2-2-2-2----------|

G|--------------------------------------------------------------------------|
D|--------------------------------------------------------------------------|
A|-----------------2-2-2-2-2-2-2-2-3-3-3-3-3-3-3-3-5-5-5-5-5-5-5-5----------|
E|-0-0-0-0-0-0-0-0----------------------------------------------------------|

guest
You may want to rate the tab now too:
select rating
Wanna post a correction for this tab? Suggest correction