Oops, an error
Loading. Please wait.

Wake Me Up When September Ends Tab

version 4
73,703 views 114 this week
no commentswrite comment
1 2 3 4 5
accurate
x 13
add to favorites
launch autoscroll
font size
0
reset
how to read this tab
guitar tuner
Autoscroll
slow
fast
+/-
esc
set tempo
stop
Help us to improve Ultimate-Guitar.com Take our survey!
×
Author
Difficulty
novice
-------------------------------------------------------------------------------
                             wake me up when september ends - green day  
-------------------------------------------------------------------------------
Tabbed by:metalhead601

Tuning:EADGBe
 

[Intro]

e|---------------------------------------------------------------------------|
B|------------3-----------3-----------------3-----------3--------------------|
G|--------0-----------0-----------------0-----------0------------------------| X2
D|----5-----------5-----------------5-----------5----------------------------|
A|---------------------------------------------------------------------------|
E|---------------------------------------------------------------------------|


[Verse]

e|---------------------------------------------------------------------------|
B|------------3-----------3---------------3-----------3----------------------|
G|--------0-----------0---------------0-----------0--------------------------|
D|----5-----------5---------------4-----------4------------------------------|
A|---------------------------------------------------------------------------|
E|---------------------------------------------------------------------------|

e|---------------------------------------------------------------------------|
B|------------3-----------3---------------3-----------3----------------------|
G|--------0-----------0---------------0-----------0--------------------------| X1
D|----2-----------2---------------0-----------0------------------------------|
A|---------------------------------------------------------------------------|
E|---------------------------------------------------------------------------|


[Chorus]

e|---------------------------------------------------------------------------|
B|-----------1-----------1------------------4-----------4--------------------|
G|---------------0-----------0------------------5-----------5----------------| X1
D|-------2-----------2------------------5-----------5------------------------|
A|---3------------------------------3----------------------------------------|
E|---------------------------------------------------------------------------|


[Post-Chorus]

e|---------------------------------------------------------------------------|
B|------------3-----------3------------------3-----------3-------------------|
G|--------0-----------0-------0----------0-----------0-------0---------------| X1
D|----5-----------5------------------5-----------5---------------------------|
A|---------------------------------------------------------------------------|
E|---------------------------------------------------------------------------|


[Verse]

e|---------------------------------------------------------------------------|
B|------------3-----------3---------------3-----------3----------------------|
G|--------0-----------0---------------0-----------0--------------------------|
D|----5-----------5---------------4-----------4------------------------------|
A|---------------------------------------------------------------------------|
E|---------------------------------------------------------------------------|

e|---------------------------------------------------------------------------|
B|------------3-----------3---------------3-----------3----------------------|
G|--------0-----------0---------------0-----------0--------------------------| X1
D|----2-----------2---------------0-----------0------------------------------|
A|---------------------------------------------------------------------------|
E|---------------------------------------------------------------------------|


[Chorus]

e|---------------------------------------------------------------------------|
B|-----------1-----------1------------------4-----------4--------------------|
G|---------------0-----------0------------------5-----------5----------------| X1
D|-------2-----------2------------------5-----------5------------------------|
A|---3------------------------------3----------------------------------------|
E|---------------------------------------------------------------------------|


[Post-Chorus]

e|---------------------------------------------------------------------------|
B|------------3-----------3------------------3-----------3-------------------|
G|--------0-----------0-------0----------0-----------0-------0---------------| X1
D|----5-----------5------------------5-----------4---------------------------|
A|---------------------------------------------------------------------------|
E|---------------------------------------------------------------------------|


[Verse]
(longer)

e|---------------------------------------------------------------------------|
B|------------3-----------3----------------3-----------3---------------------|
G|--------0-----------0-------0--------0-----------0-------0-----------------|
D|----5-----------5----------------4-----------4-----------------------------|
A|---------------------------------------------------------------------------|
E|---------------------------------------------------------------------------|

e|---------------------------------------------------------------------------|
B|------------3-----------3----------------3--------------3------------------|
G|--------0-----------0-------0--------0-------0------0-------0--------------| 
D|----2-----------2----------------0---------------0-------------------------|
A|---------------------------------------------------------------------------|
E|---------------------------------------------------------------------------|


e|---------------------------------------------------------------------------|
B|------------3-----------3---------------3-----------3----------------------|
G|--------0-----------0---------------0-----------0--------------------------|
D|----5-----------5---------------4-----------4------------------------------|
A|---------------------------------------------------------------------------|
E|---------------------------------------------------------------------------|

e|---------------------------------------------------------------------------|
B|------------3-----------3---------------3-----------3----------------------|
G|--------0-----------0---------------0-----------0--------------------------| 
D|----2-----------2---------------0-----------0------------------------------|
A|---------------------------------------------------------------------------|
E|---------------------------------------------------------------------------|


e|---------------------------------------------------------------------------|
B|------------3-----------3---------------3-----------3----------------------|
G|--------0-----------0---------------0-----------0--------------------------|
D|----5-----------5---------------4-----------4------------------------------|
A|---------------------------------------------------------------------------|
E|---------------------------------------------------------------------------|

e|---------------------------------------------------------------------------|
B|------------3-----------3---------------3-----------3----------------------|
G|--------0-----------0---------------0-----------0--------------------------| X1
D|----2-----------2---------------0-----------0------------------------------|
A|---------------------------------------------------------------------------|
E|---------------------------------------------------------------------------|


[Chorus]

e|---------------------------------------------------------------------------|
B|-----------1-----------1------------------4-----------4--------------------|
G|---------------0-----------0------------------5-----------5----------------| X1
D|-------2-----------2------------------5-----------5------------------------|
A|---3------------------------------3----------------------------------------|
E|---------------------------------------------------------------------------|


[Post-Chorus]

e|---------------------------------------------------------------------------|
B|------------3-----------3------------------3-----------3-------------------|
G|--------0-----------0-------0----------0-----------0-------0---------------| 
D|----5-----------5------------------5-----------5---------------------------|
A|---------------------------------------------------------------------------|
E|---------------------------------------------------------------------------|

electric guitar enters on the 3rd measure
e|---------------------------------------------------------------------------|
B|------------3-----------3-----------------3-----------3--------------------|
G|--------0-----------0-----------------0-----------0------------------------| X3
D|----5-----------5-----------------5-----------5----------------------------|
A|---------------------------------------------------------------------------|
E|---------------------------------------------------------------------------|


[Verse]

e|---------------------------------------------------------------------------|
B|------------3-----------3---------------3-----------3----------------------|
G|--------0-----------0---------------0-----------0--------------------------|
D|----5-----------5---------------4-----------4------------------------------|
A|---------------------------------------------------------------------------|
E|---------------------------------------------------------------------------|

e|---------------------------------------------------------------------------|
B|------------3-----------3---------------3-----------3----------------------|
G|--------0-----------0---------------0-----------0--------------------------| X1
D|----2-----------2---------------0-----------0------------------------------|
A|---------------------------------------------------------------------------|
E|---------------------------------------------------------------------------|


[Electric chorus]

e|---0000000000000000-----3333333333333333-----------------------------------|
B|---1111111111111111-----4444444444444444-----------------------------------|
G|---0000000000000000-----5555555555555555-----------------------------------| X1
D|---2222222222222222-----5555555555555555-----------------------------------|
A|---3333333333333333-----3333333333333333-----------------------------------|
E|---------------------------------------------------------------------------|


[Verse]

e|---------------------------------------------------------------------------|
B|------------3-----------3---------------3-----------3----------------------|
G|--------0-----------0---------------0-----------0--------------------------|
D|----5-----------5---------------4-----------4------------------------------|
A|---------------------------------------------------------------------------|
E|---------------------------------------------------------------------------|

e|---------------------------------------------------------------------------|
B|------------3-----------3---------------3-----------3----------------------|
G|--------0-----------0---------------0-----------0--------------------------| X1
D|----2-----------2---------------0-----------0------------------------------|
A|---------------------------------------------------------------------------|
E|---------------------------------------------------------------------------|


[Electric chorus] 
(longer)

e|---0000000000000000-----3333333333333333-----------------------------------|
B|---1111111111111111-----4444444444444444-----------------------------------|
G|---0000000000000000-----5555555555555555-----------------------------------| X1
D|---2222222222222222-----5555555555555555-----------------------------------|
A|---3333333333333333-----3333333333333333-----------------------------------|
E|---------------------------------------------------------------------------|


e|---------------------------------------------------------------------------|
B|---------------------------------------------------------------------------|
G|----44444444----55555555---66666666----------------------------------------|
D|----44444444----55555555---66666666---55555555-----------------------------|
A|----22222222----33333333---44444444---55555555-----------------------------|
E|--------------------------------------33332222-----------------------------|


e|---------------------------------------------------------------------------|
B|---------------------------------------------------------------------------|
G|----44444444----55555555---66666666---77777777-----------------------------| X1
D|----44444444----55555555---66666666---77777777-----------------------------|
A|----22222222----33333333---44444444---55555555-----------------------------|
E|---------------------------------------------------------------------------|


[Verse]

e|---------------------------------------------------------------------------|
B|------------3-----------3---------------3-----------3----------------------|
G|--------0-----------0---------------0-----------0--------------------------|
D|----5-----------5---------------4-----------4------------------------------|
A|---------------------------------------------------------------------------|
E|---------------------------------------------------------------------------|

e|---------------------------------------------------------------------------|
B|------------3-----------3---------------3-----------3----------------------|
G|--------0-----------0---------------0-----------0--------------------------| X1
D|----2-----------2---------------0-----------0------------------------------|
A|---------------------------------------------------------------------------|
E|---------------------------------------------------------------------------|


[Electric chorus]
(longer)

e|---0000000000000000-----3333333333333333-----------------------------------|
B|---1111111111111111-----4444444444444444-----------------------------------|
G|---0000000000000000-----5555555555555555-----------------------------------| X1
D|---2222222222222222-----5555555555555555-----------------------------------|
A|---3333333333333333-----3333333333333333-----------------------------------|
E|---------------------------------------------------------------------------|


[Solo]

e|-----------7---------7------7----------7----------7-------7----------------|
B|----8---8-----8---8------8------7---7------7---7------7--------------------|
G|---------------------------------------------------------------------------|
D|---------------------------------------------------------------------------|
A|---------------------------------------------------------------------------|
E|---------------------------------------------------------------------------|


e|------------8-----------8-------8---10-10-10-10-8-8-8-8--------------------|
B|----8---8-------8---8-------8-------10-10-10-10-8-8-8-8--------------------|
G|---------------------------------------------------------------------------|
D|---------------------------------------------------------------------------|
A|---------------------------------------------------------------------------|
E|---------------------------------------------------------------------------|


e|-----------7---------7------7----------7----------7-------7----------------|
B|----8---8-----8---8------8------7---7------7---7------7--------------------|
G|---------------------------------------------------------------------------|
D|---------------------------------------------------------------------------|
A|---------------------------------------------------------------------------|
E|---------------------------------------------------------------------------|



e|-----------8-----------8-------8---10-10-10-10-10-10-10-10-8-8-8-8-8-8-8-8-|
B|---8---8-------8---8-------8-------10-10-10-10-10-10-10-10-8-8-8-8-8-8-8-8-|
G|---------------------------------------------------------------------------|
D|---------------------------------------------------------------------------|
A|---------------------------------------------------------------------------|
E|---------------------------------------------------------------------------|

e|---------------------------------------------------------------------------|
B|---10-10-10-10-10-10-10-10-8-8-8-8-8-8-8-8-7~~~~~~~~-----------------------|
G|---10-10-10-10-10-10-10-10-8-8-8-8-8-8-8-8-8~~~~~~~~-----------------------|
D|---------------------------------------------------------------------------|
A|---------------------------------------------------------------------------|
E|---------------------------------------------------------------------------|


[Post-solo]

e|---------------------------------------------------------------------------|
B|------------3-----------3-----------------3-----------3--------------------|
G|--------0-----------0-----------------0-----------0------------------------| X2
D|----5-----------5-----------------5-----------5----------------------------|
A|---------------------------------------------------------------------------|
E|---------------------------------------------------------------------------|


[Verse]

e|---------------------------------------------------------------------------|
B|------------3-----------3---------------3-----------3----------------------|
G|--------0-----------0---------------0-----------0--------------------------|
D|----5-----------5---------------4-----------4------------------------------|
A|---------------------------------------------------------------------------|
E|---------------------------------------------------------------------------|

e|---------------------------------------------------------------------------|
B|------------3-----------3---------------3-----------3----------------------|
G|--------0-----------0---------------0-----------0--------------------------| X1
D|----2-----------2---------------0-----------0------------------------------|
A|---------------------------------------------------------------------------|
E|---------------------------------------------------------------------------|


[Electric chorus]

e|---0000000000000000-----3333333333333333-----------------------------------|
B|---1111111111111111-----4444444444444444-----------------------------------|
G|---0000000000000000-----5555555555555555-----------------------------------| X1
D|---2222222222222222-----5555555555555555-----------------------------------|
A|---3333333333333333-----3333333333333333-----------------------------------|
E|---------------------------------------------------------------------------|


[Verse]

e|---------------------------------------------------------------------------|
B|------------3-----------3---------------3-----------3----------------------|
G|--------0-----------0---------------0-----------0--------------------------|
D|----5-----------5---------------4-----------4------------------------------|
A|---------------------------------------------------------------------------|
E|---------------------------------------------------------------------------|

e|---------------------------------------------------------------------------|
B|------------3-----------3---------------3-----------3----------------------|
G|--------0-----------0---------------0-----------0--------------------------| X1
D|----2-----------2---------------0-----------0------------------------------|
A|---------------------------------------------------------------------------|
E|---------------------------------------------------------------------------|


[Electric chorus]

e|---0000000000000000-----3333333333333333-----------------------------------|
B|---1111111111111111-----4444444444444444-----------------------------------|
G|---0000000000000000-----5555555555555555-----------------------------------| X3
D|---2222222222222222-----5555555555555555-----------------------------------|
A|---3333333333333333-----3333333333333333-----------------------------------|
E|---------------------------------------------------------------------------|
 

************************************

| ~  Vibrato

************************************
Suggest correction
What's this?
You can suggest a correction to this tab. Community and Mods will review your correction and vote to approve or reject it.
comments
print report bad tab
guest
You may want to rate the tab now too:
select rating
Please do not post tabs as comments. Select "correction" instead!