Oops, an error
Loading. Please wait.

Wake Me Up When September Ends Tab

version 5
6,918,154 views 2,211 this week
462 commentsread comments
1 2 3 4 5
x 2,214
add to favorites
launch autoscroll
font size
0
reset
how to read this tab
guitar tuner
Autoscroll
slow
fast
+/-
esc
set tempo
stop
Help us to improve Ultimate-Guitar.com Take our survey!
×
Author
[Intro]

(acoustic)
e|----------------|----------------|----------------|----------------|
B|----3-----3-----|----3-----3-----|----3-----3-----|----3-----3-----|
G|--0-----0-------|--0-----0-------|--0-----0-------|--0-----0-------|
D|5-----5---------|5-----5---------|5-----5---------|5-----5---------|
A|----------------|----------------|----------------|----------------|
E|----------------|----------------|----------------|----------------|


[Verse 1]

e|----------------|----------------|----------------|----------------|
B|----3-----3-----|----3-----3-----|----3-----3-----|----3-----3-----|
G|--0-----0-------|--0-----0-------|--0-----0-------|--0-----0-------|
D|5-----5---------|4-----4---------|2-----2---------|0-----0---------|
A|----------------|----------------|----------------|----------------|
E|----------------|----------------|----------------|----------------|

     C                Cm               G                G
e|----------------|----------------|----------------|----------------|
B|----5-----5-----|----4-----4-----|----3-----3-----|----3-----3-----|
G|----5-5---5---5-|--5---5---5---0-|----0-0---0---0-|----0-0---0---0-|
D|--5-------5-----|--------5-----0-|--0-------0-----|--0-------0-----|
A|3-------3-------|3---------------|----------------|----------------|
E|----------------|----------------|3-------3-------|3-------3-------|

e|----------------|----------------|----------------|----------------|
B|----3-----3-----|----3-----3-----|----3-----3-----|----3-----3-----|
G|--0-----0-------|--0-----0-------|--0-----0-------|--0-----0-------|
D|5-----5---------|4-----4---------|2-----2---------|0-----0---------|
A|----------------|----------------|----------------|----------------|
E|----------------|----------------|----------------|----------------|

     C                Cm               G                G       G/Gb  
e|----------------|----------------|----------------|----3-----------|
B|----5-----5-----|----4-----4-----|----3-----3-----|----3-------3-0-|
G|----5-5---5---5-|--5---5---5---0-|----0-0---0---0-|----0-0-----0---|
D|--5-------5-----|--------5-----0-|--0-------0-----|--0-------------|
A|3-------3-------|3---------------|----------------|----------0-----|
E|----------------|----------------|3-------3-------|3-------2-------|


[Bridge]

    Em               Bm               C                G       G/Gb 
e|----------------|----------------|----0-----0-----|----3-----------|
B|----0-----0-----|----3-----3-----|----1-1---1-----|----3-------3-0-|
G|----0-0---0-----|----4-----4-----|--0-------0---0-|----0-0-----0---|
D|--2-------2---0-|--4---4-------4-|--------------0-|--0-------------|
A|----------------|2-------2-------|3-------3-------|----------0-----|
E|0-------0-------|----------------|----------------|3-------2-------|
                  
    Em               Bm               C                D 
e|----------------|----------------|----0-----0-----|----2-----2-----|
B|----0-----0-----|----3-----3-----|----1-1---1-----|----3-3---3-----|
G|----0-0---0-----|----4-----4-----|--0-------0---0-|--2---2---2---0-|
D|--2-------2---0-|--4---4-------4-|----------------|0-------0-------|
A|----------------|2-------2-------|3-------3-------|----------------|
E|0-------0-------|----------------|----------------|----------------|


[Verse 2]

e|----------------|----------------|----------------|----------------|
B|----3-----3-----|----3-----3-----|----3-----3-----|----3-----3-----|
G|--0-----0-------|--0-----0-------|--0-----0-------|--0-----0-------|
D|5-----5---------|4-----4---------|2-----2---------|0-----0---------|
A|----------------|----------------|----------------|----------------|
E|----------------|----------------|----------------|----------------|

     C                Cm               G                G
e|----------------|----------------|----------------|----------------|
B|----5-----5-----|----4-----4-----|----3-----3-----|----3-----3-----|
G|----5-5---5---5-|--5---5---5---0-|----0-0---0---0-|----0-0---0---0-|
D|--5-------5-----|--------5-----0-|--0-------0-----|--0-------0-----|
A|3-------3-------|3---------------|----------------|----------------|
E|----------------|----------------|3-------3-------|3-------3-------|

e|----------------|----------------|----------------|----------------|
B|----3-----3-----|----3-----3-----|----3-----3-----|----3-----3-----|
G|--0-----0-------|--0-----0-------|--0-----0-------|--0-----0-------|
D|5-----5---------|4-----4---------|2-----2---------|0-----0---------|
A|----------------|----------------|----------------|----------------|
E|----------------|----------------|----------------|----------------|

     C                Cm               G                G       G/Gb  
e|----------------|----------------|----------------|----3-----------|
B|----5-----5-----|----4-----4-----|----3-----3-----|----3-------3-0-|
G|----5-5---5---5-|--5---5---5---0-|----0-0---0---0-|----0-0-----0---|
D|--5-------5-----|--------5-----0-|--0-------0-----|--0-------------|
A|3-------3-------|3---------------|----------------|----------0-----|
E|----------------|----------------|3-------3-------|3-------2-------|


[Break]

e|----------------|----------------|----------------|----------------|
B|----3-----3-----|----3-----3-----|----3-----3-----|----3-----3-----|
G|--0-----0-------|--0-----0-------|--0-----0-------|--0-----0-------|
D|5-----5---------|5-----5---------|5-----5---------|5-----5---------|
A|----------------|----------------|----------------|----------------|
E|----------------|----------------|----------------|----------------|


 w/Distortion
e|----------------|----------------|
B|----3-----3-----|----3-----3-----|
G|--0-----0-------|--0-----0-------|
D|5-----5---------|5-----5---------|
A|----------------|----------------|
E|----------------|----------------|

e|----------------|----------------|----------------|----------------|
B|----3-----3-----|----3-----3-----|----3-----3-----|----3-----3-----|
G|--0-----0-------|--0-----0-------|--0-----0-------|--0-----0-------|
D|5-----5---------|4-----4---------|2-----2---------|0-----0---------|
A|----------------|----------------|----------------|----------------|
E|----------------|----------------|----------------|----------------|


[Chorus]

     C                Cm               G5
e|----------------|----------------|----------------|----------------|
B|5-5-5-5-5-5-5-5-|4-4-4-4-4-4-4-4-|----------------|----------------|
G|5-5-5-5-5-5-5-5-|5-5-5-5-5-5-5-5-|----------------|----------------|
D|5-5-5-5-5-5-5-5-|5-5-5-5-5-5-5-5-|5-5-5-5-5-5-5-5-|5-5-5-5-5-5-5-5-|
A|3-3-3-3-3-3-3-3-|3-3-3-3-3-3-3-3-|5-5-5-5-5-5-5-5-|5-5-5-5-5-5-5-5-|
E|----------------|----------------|3-3-3-3-3-3-3-3-|3-3-3-3-3-3-3-3-|

e|----------------|----------------|----------------|----------------|
B|----3-----3-----|----3-----3-----|----3-----3-----|----3-----3-----|
G|--0-----0-------|--0-----0-------|--0-----0-------|--0-----0-------|
D|5-----5---------|4-----4---------|2-----2---------|0-----0---------|
A|----------------|----------------|----------------|----------------|
E|----------------|----------------|----------------|----------------|

     C                Cm               G5                       G5/Gb
e|----------------|----------------|----------------|----------------|
B|5-5-5-5-5-5-5-5-|4-4-4-4-4-4-4-4-|----------------|----------------|
G|5-5-5-5-5-5-5-5-|5-5-5-5-5-5-5-5-|----------------|----------------|
D|5-5-5-5-5-5-5-5-|5-5-5-5-5-5-5-5-|5-5-5-5-5-5-5-5-|5-5-5-5-5-5-5-5-|
A|3-3-3-3-3-3-3-3-|3-3-3-3-3-3-3-3-|5-5-5-5-5-5-5-5-|5-5-5-5-5-5-5-5-|
E|----------------|----------------|3-3-3-3-3-3-3-3-|3-3-3-3-2-2-2-2-|


[Distorted Bridge]

    E5               Bm               C5               G5      G5/Gb 
e|----------------|----------------|----------------|----------------|
B|----------------|----3-----------|----------------|----------------|
G|----------------|4-4-4-4-4-4-4-0-|5-5-5-5-5-5-5-0-|----------------|
D|2-2-2-2-2-2-2-2-|4-4-4-4-4-4-4-0-|5-5-5-5-5-5-5-0-|5-5-5-5-5-5-5-0-|
A|2-2-2-2-2-2-2-2-|2-2-2-2-2-2-2-0-|3-3-3-3-3-3-3-0-|5-5-5-5-5-5-5-0-|
E|0-0-0-0-0-0-0-0-|----------------|----------------|3-3-3-3-2-2-2-0-|

    E5               Bm               C5               D5            
e|----------------|----------------|----------------|----------------|
B|----------------|----3-3-3-3-3---|----------------|----------------|
G|----------------|4-4-4-4-4-4-4-0-|5-5-5-5-5-5-5-5-|7-7-7-7-7-7-7-7-|
D|2-2-2-2-2-2-2-2-|4-4-4-4-4-4-4-0-|5-5-5-5-5-5-5-5-|7-7-7-7-7-7-7-7-|
A|2-2-2-2-2-2-2-2-|2-2-2-2-2-2-2-0-|3-3-3-3-3-3-3-3-|5-5-5-5-5-5-5-5-|
E|0-0-0-0-0-0-0-0-|----------------|----------------|----------------|

e|----------------|------------3---|----------------|----------------|
B|----3-----3-----|----3-----3-----|----3-----3-----|----3-----3-----|
G|--0-----0-------|--0-----0-------|--0-----0-------|--0-----0-------|
D|5-----5---------|4-----4---------|2-----2---------|0-----0---------|
A|----------------|----------------|----------------|----------------|
E|----------------|----------------|----------------|----------------|

    C                Cm               G5                       G5/Gb
e|----------------|----------------|----------------|----------------|
B|5-5-5-5-5-5-5-5-|4-4-4-4-4-4-4-4-|----------------|----------------|
G|5-5-5-5-5-5-5-5-|5-5-5-5-5-5-5-5-|----------------|----------------|
D|5-5-5-5-5-5-5-5-|5-5-5-5-5-5-5-5-|5-5-5-5-5-5-5-5-|5-5-5-5-5-5-5-5-|
A|3-3-3-3-3-3-3-3-|3-3-3-3-3-3-3-3-|5-5-5-5-5-5-5-5-|5-5-5-5-5-5-5-5-|
E|----------------|----------------|3-3-3-3-3-3-3-3-|3-3-3-3-2-2-2-2-|


[Solo]

  Guitar 1                                
e|------------------|------------------|------------------|-----------------------|
B|-----12-----12--12|-----12-----12--12|-----13-----13--13|15-15-15-15-15-15-15-15|
G|12-12--12-12--12--|11-11--11-11--11--|12-12--12-12--12--|12-12-12-12-11-11-11-11|
D|------------------|------------------|------------------|-----------------------|
A|------------------|------------------|------------------|-----------------------|
E|------------------|------------------|------------------|-----------------------|

e|------------------|------------------|------------------|-----------------------|
B|-----12-----12--12|-----12-----12--12|-----13-----13--13|15-15-15-15-15-15-15-15|
G|12-12--12-12--12--|11-11--11-11--11--|12-12--12-12--12--|12-12-12-12-12-12-12-12|
D|------------------|------------------|------------------|-----------------------|
A|------------------|------------------|------------------|-----------------------|
E|------------------|------------------|------------------|-----------------------|

e|-----------------------|-----------------------|-----------------------|
B|15-15-15-15-15-15-15-15|15-15-15-15-15-15-15-15|15-15-15-15-15-15-15-15|
G|11-11-11-11-11-11-11-11|12-12-12-12-12-12-12-12|11-11-11-11-11-11-11-11|
D|-----------------------|-----------------------|-----------------------|
A|-----------------------|-----------------------|-----------------------|
E|-----------------------|-----------------------|-----------------------|


  Guitar 2 
     E5               Bm               C5               G5      G5/Gb 
e|----------------|----------------|----------------|----------------|
B|----------------|----3-----------|----------------|----------------|
G|----------------|4-4-4-4-4-4-4-0-|5-5-5-5-5-5-5-0-|----------------|
D|2-2-2-2-2-2-2-2-|4-4-4-4-4-4-4-0-|5-5-5-5-5-5-5-0-|5-5-5-5-5-5-5-5-|
A|2-2-2-2-2-2-2-2-|2-2-2-2-2-2-2-0-|3-3-3-3-3-3-3-0-|5-5-5-5-5-5-5-5-|
E|0-0-0-0-0-0-0-0-|----------------|----------------|3-3-3-3-2-2-2-2-|
 
     E5               Bm               C5               D5            
e|----------------|----------------|----------------|----------------|
B|----------------|----3-----------|----------------|3-3-3-3-3-3-3-3-|
G|----------------|4-4-4-4-4-4-4-0-|5-5-5-5-5-5-5-5-|2-2-2-2-2-2-2-2-|
D|2-2-2-2-2-2-2-2-|4-4-4-4-4-4-4-0-|5-5-5-5-5-5-5-5-|0-0-0-0-0-0-0-0-|
A|2-2-2-2-2-2-2-2-|2-2-2-2-2-2-2-0-|3-3-3-3-3-3-3-3-|----------------|
E|0-0-0-0-0-0-0-0-|----------------|----------------|----------------|
 
     D5            
e|----------------|----------------|----------------|
B|3-3-3-3-3-3-3-3-|3-3-3-3-3-3-3-3-|3-3-3-3-3-3-3-3-|
G|2-2-2-2-2-2-2-2-|2-2-2-2-2-2-2-2-|2-2-2-2-2-2-2-2-|
D|0-0-0-0-0-0-0-0-|0-0-0-0-0-0-0-0-|0-0-0-0-0-0-0-0-|
A|----------------|----------------|----------------|
E|----------------|----------------|----------------|


Guitar 2 (still w/distortion)
     G
e|3---------------|
B|3---------------|
G|0---------------|
D|----------------|
A|----------------|
E|----------------|

 Guitar1 (clean/acoustic)
e|----------------|----------------|----------------|----------------|
B|----3-----3-----|----3-----3-----|----3-----3-----|----3-----3-----|
G|--0-----0-------|--0-----0-------|--0-----0-------|--0-----0-------|
D|5-----5---------|5-----5---------|5-----5---------|5-----5---------|
A|----------------|----------------|----------------|----------------|
E|----------------|----------------|----------------|----------------|

e|----------------|----------------|----------------|----------------|
B|----3-----3-----|----3-----3-----|----3-----3-----|----3-----3-----|
G|--0-----0-------|--0-----0-------|--0-----0-------|--0-----0-------|
D|5-----5---------|4-----4---------|2-----2---------|0-----0---------|
A|----------------|----------------|----------------|----------------|
E|----------------|----------------|----------------|----------------|
  w/Distortion for the rest of the song,

 
[Chorus]

     C                Cm               G5
e|----------------|----------------|----------------|----------------|
B|5-5-5-5-5-5-5-5-|4-4-4-4-4-4-4-4-|----------------|----------------|
G|5-5-5-5-5-5-5-5-|5-5-5-5-5-5-5-5-|----------------|----------------|
D|5-5-5-5-5-5-5-5-|5-5-5-5-5-5-5-5-|5-5-5-5-5-5-5-5-|5-5-5-5-5-5-5-5-|
A|3-3-3-3-3-3-3-3-|3-3-3-3-3-3-3-3-|5-5-5-5-5-5-5-5-|5-5-5-5-5-5-5-5-|
e|----------------|----------------|3-3-3-3-3-3-3-3-|3-3-3-3-3-3-3-3-|

e|----------------|----------------|----------------|----------------|
B|----3-----3-----|----3-----3-----|----3-----3-----|----3-----3-----|
G|--0-----0-------|--0-----0-------|--0-----0-------|--0-----0-------|
D|5-----5---------|4-----4---------|2-----2---------|0-----0---------|
A|----------------|----------------|----------------|----------------|
e|----------------|----------------|----------------|----------------|

     C                Cm               G5                       G5/Gb
e|----------------|----------------|----------------|----------------|
B|5-5-5-5-5-5-5-5-|4-4-4-4-4-4-4-4-|----------------|----------------|
G|5-5-5-5-5-5-5-5-|5-5-5-5-5-5-5-5-|----------------|----------------|
D|5-5-5-5-5-5-5-5-|5-5-5-5-5-5-5-5-|5-5-5-5-5-5-5-5-|5-5-5-5-5-5-5-5-|
A|3-3-3-3-3-3-3-3-|3-3-3-3-3-3-3-3-|5-5-5-5-5-5-5-5-|5-5-5-5-5-5-5-5-|
E|----------------|----------------|3-3-3-3-3-3-3-3-|3-3-3-3-2-2-2-2-|


[Break]

e|----------------|----------------|----------------|----------------|
B|----3-----3-----|----3-----3-----|----3-----3-----|----3-----3-----|
G|--0-----0-------|--0-----0-------|--0-----0-------|--0-----0-------|
D|5-----5---------|4-----4---------|2-----2---------|0-----0---------|
A|----------------|----------------|----------------|----------------|
e|----------------|----------------|----------------|----------------|


[Chorus] 

     C                Cm               G5
e|----------------|----------------|----------------|----------------|
B|5-5-5-5-5-5-5-5-|4-4-4-4-4-4-4-4-|----------------|----------------|
G|5-5-5-5-5-5-5-5-|5-5-5-5-5-5-5-5-|----------------|----------------|
D|5-5-5-5-5-5-5-5-|5-5-5-5-5-5-5-5-|5-5-5-5-5-5-5-5-|5-5-5-5-5-5-5-5-|
A|3-3-3-3-3-3-3-3-|3-3-3-3-3-3-3-3-|5-5-5-5-5-5-5-5-|5-5-5-5-5-5-5-5-|
e|----------------|----------------|3-3-3-3-3-3-3-3-|3-3-3-3-3-3-3-3-|

e|----------------|----------------|----------------|----------------|
B|----3-----3-----|----3-----3-----|----3-----3-----|----3-----3-----|
G|--0-----0-------|--0-----0-------|--0-----0-------|--0-----0-------|                      x2
D|5-----5---------|4-----4---------|2-----2---------|0-----0---------|
A|----------------|----------------|----------------|----------------|
e|----------------|----------------|----------------|----------------|

     C                Cm               G5                       G5/Gb
e|----------------|----------------|----------------|----------------|
B|5-5-5-5-5-5-5-5-|4-4-4-4-4-4-4-4-|----------------|----------------|
G|5-5-5-5-5-5-5-5-|5-5-5-5-5-5-5-5-|----------------|----------------|
D|5-5-5-5-5-5-5-5-|5-5-5-5-5-5-5-5-|5-5-5-5-5-5-5-5-|5-5-5-5-5-5-5-5-|
A|3-3-3-3-3-3-3-3-|3-3-3-3-3-3-3-3-|5-5-5-5-5-5-5-5-|5-5-5-5-5-5-5-5-|
E|----------------|----------------|3-3-3-3-3-3-3-3-|3-3-3-3-2-2-2-2-|


[End]

     C                Cm               G5
e|----------------|----------------|----------------|----------------|
B|5-5-5-5-5-5-5-5-|4-4-4-4-4-4-4-4-|----------------|----------------|
G|5-5-5-5-5-5-5-5-|5-5-5-5-5-5-5-5-|----------------|----------------|
D|5-5-5-5-5-5-5-5-|5-5-5-5-5-5-5-5-|5-5-5-5-5-5-5-5-|5---------------|
A|3-3-3-3-3-3-3-3-|3-3-3-3-3-3-3-3-|5-5-5-5-5-5-5-5-|5---------------|
E|----------------|----------------|3-3-3-3-3-3-3-3-|3---------------|
Suggest correction
comments
print report bad tab
462 comments total. Showing first comments. show 1 bad comment
+48 reply
Bubkus123 10 Oct 13, 2004 12:00 AM

Hey, sweet tab, man. The acoustic parts sound exactly like the album.

+28 reply
BoucheDag 10 Oct 13, 2004 12:00 AM

Holy croch! This tab is kickass. It's hella accurate.
Like the second measure of the distorted bridge is this:
e| |----------------|
B| |----3-----------|
G| |4-4-4-4-4-4-4-0-|
D| |4-4-4-4-4-4-4-0-|
A| |2-2-2-2-2-2-2-0-|
E| |----------------|
If you listen to the CD, that's how it is, they only play 3 on the
B string that one time. All tabs should put the little things like
that in there.

guest
You may want to rate the tab now too:
select rating
Wanna post a correction for this tab? Suggest correction