Oops, an error
Loading. Please wait.

Wake Me Up When September Ends Chords

version 9
version 9

Whole song

118 views 36 this week
no commentswrite comment
1 2 3 4 5
2 more votes to show rating
add to favorites
launch autoscroll
font size
0
reset
transpose
0
reset
simplify chords
display chords
guitar tuner
Autoscroll
slow
fast
+/-
esc
set tempo
stop
Help us to improve Ultimate-Guitar.com Take our survey!
×
Author
Difficulty
intermediate
About this tab version
This is a combination of chords and tabs. easy to play on Acoustic. Was this info helpful? Yes No
Wake me up when September ends
[Intro]
e|----------------|----------------|----------------|----------------|
B|-----3------3---|-----3------3---|-----3------3---|-----3------3---|
G|---0------0-----|---0------0-----|---0------0-----|---0------0-----|
D|-5------5-------|-5------5-------|-5------5-------|-5------5-------|
A|----------------|----------------|----------------|----------------|
E|----------------|----------------|----------------|----------------|

[Verse 1]
  Summer   has     come and passed    The innocent    can never last

e|----------------|----------------|----------------|----------------|
B|-----3------3---|-----3------3---|-----3------3---|-----3------3---|
G|---0------0-----|---0------0-----|---0------0-----|---0------0-----|
D|-5------5-------|-4------4-------|-2------2-------|-0------0-------|
A|----------------|----------------|----------------|----------------|
E|----------------|----------------|----------------|----------------|
C             Cm                        2X 
                                 e|----------------|
                                 B|-----3------3---|
                                 G|---0------0-----|
                                 D|-5------5-------|
                                 A|----------------|
                                 E|----------------]
Wake me up when September ends         
                                

  Like my fathers'  come to pass     Seven years    has gone so fast
e|----------------|----------------|----------------|----------------|
B|-----3------3---|-----3------3---|-----3------3---|-----3------3---|
G|---0------0-----|---0------0-----|---0------0-----|---0------0-----|
D|-5------5-------|-4------4-------|-2------2-------|-0------0-------|
A|----------------|----------------|----------------|----------------|
E|----------------|----------------|----------------|----------------|
C               Cm            G5   D/F#  walk down
Wake me up when September ends   

[Chorus] 
Em             Bm
Here comes the rain again
C                G     
Falling from the stars
Em             Bm
Drenched in my pain again
C               D
Becoming who we are

G         D/F#
As my memory rests
    Em            D
But never forgets what I lost
C          Cm             G
Wake me up when September ends


e|----------------|----------------|----------------|----------------|
B|-----3------3---|-----3------3---|-----3------3---|-----3------3---|
G|---0------0-----|---0------0-----|---0------0-----|---0------0-----|
D|-5------5-------|-5------5-------|-5------5-------|-5------5-------|
A|----------------|----------------|----------------|----------------|
E|----------------|----------------|----------------|----------------

 
[Verse 2] Bar chords 
G          D/F#
Summer has come and passed
    Em           D
The innocent can never last
C               Cm        G 
Wake me up when September ends

G            D/F#
Ring out the bells again
Em               D
Like we did when spring began
C               Cm        G    D/F#
Wake me up when September ends

[Chorus]
Em             Bm
Here comes the rain again
C                G     D/F#
Falling from the stars
Em             Bm
Drenched in my pain again
C               D
Becoming who we are

G         D/F#
As my memory rests
      Em            D
But never forgets what I lost
C          Cm             G    D/F#
Wake me up when September ends

Solo (heavy Bar chords) 

Em             Bm

C                G     D/F#

Em             Bm

C               D hold 4 notes heavy


Stop and go back to picking

e|----------------|----------------|----------------|----------------|
B|-----3------3---|-----3------3---|-----3------3---|-----3------3---|
G|---0------0-----|---0------0-----|---0------0-----|---0------0-----|
D|-5------5-------|-5------5-------|-5------5-------|-5------5-------|
A|----------------|----------------|----------------|----------------|
E|----------------|----------------|----------------|----------------

[Verse 3]
  Summer   has     come and passed    The innocent    can never last

e|----------------|----------------|----------------|----------------|
B|-----3------3---|-----3------3---|-----3------3---|-----3------3---|
G|---0------0-----|---0------0-----|---0------0-----|---0------0-----|
D|-5------5-------|-4------4-------|-2------2-------|-0------0-------|
A|----------------|----------------|----------------|----------------|
E|----------------|----------------|----------------|----------------|
C               Cm        G
Wake me up when September ends

G                Bm
Like my father's come to pass
Em               D 
Twenty years has gone so fast
C               Cm        G    
Wake me up when September ends
C               Cm        G     
Wake me up when September ends
C               Cm        G   
Wake me up when September ends
Suggest correction
Give kudos to tab author, rate the tab!
1 2 3 4 5
comments
print report bad tab
guest
You may want to rate the tab now too:
select rating
Wanna post a correction for this tab? Suggest correction