Oops, an error
Loading. Please wait.

Walking Alone Tab

version 3
version 3

Whole song

Interactive

6,521 views 27 this week
1 commentread comment
1 2 3 4 5
excellent!
x 8
add to favorites
launch autoscroll
font size
0
reset
how to read this tab
guitar tuner
Autoscroll
slow
fast
+/-
esc
set tempo
stop
Help us to improve Ultimate-Guitar.com Take our survey!
×
Author
Difficulty
novice
Hey, this is my first ever tab, but i'm pretty sure it's correct.
I've been searching for a decent Tab of this and the solo always seems to be wrong/in an 
place!
 So here is the solo and the rest of the song, thanks!

Song: Walking Alone
Band: Green Day
Album: Nimrod
Tuning: Standard

Intro:
e|--------------------------------------------|
B|--------------------------------------------|
G|--------------------------------------------|
D|-5-5-5-5-5-5-5-5-2-2-2-2-2-2-2-2------------| X2
A|-5-5-5-5-5-5-5-5-2-2-2-2-2-2-2-2------------|
E|-3-3-3-3-3-3-3-3-0-0-0-0-0-0-0-0------------|
Harmonica Plays over this, but if you must play it on guitar just use the first part of 
solo up to the bend, you'll hear what I mean.

Verse: (Come Together Like a Foot in a Shoe...)
e|--------------------------------------------|
B|--------------------------------------------|
G|--------------------------------------------|
D|-5-5-5-5-5-5-5-5-2-2-2-2-2-2-2-2------------|
A|-5-5-5-5-5-5-5-5-2-2-2-2-2-2-2-2------------|
E|-3-3-3-3-3-3-3-3-0-0-0-0-0-0-0-0------------|

e|--------------------------------------------|
B|--------------------------------------------|
G|-5-5-5-5-5-5-5-5-7-7-7-7-7-7-7-7------------|
D|-5-5-5-5-5-5-5-5-7-7-7-7-7-7-7-7------------| (Play This Sequence Twice)
A|-3-3-3-3-3-3-3-3-5-5-5-5-5-5-5-5------------|
E|--------------------------------------------|

Chorus: (Sometimes I Need To Apolagize...)
e|--------------------------------------------|
B|--------------------------------------------|
G|-5-5-5-5-5-5-5-5-7-7-7-7-7-7-7-7------------|
D|-5-5-5-5-5-5-5-5-7-7-7-7-7-7-7-7------------| X3
A|-3-3-3-3-3-3-3-3-5-5-5-5-5-5-5-5------------|
E|--------------------------------------------|

Then: (Or Only Say Hello)
e|--------------------------------------------|
B|--------------------------------------------|
G|--------------------------------------------|
D|-5-5-3-3-2-2-2-2----------------------------|
A|-5-5-3-3-2-2-2-2----------------------------|
E|-3-3-1-1-0-0-0-0----------------------------|

(Sometimes I Still Feel I'm Walking Alone)
e|--------------------------------------------|
B|--------------------------------------------|
G|-5-5-5-5-5-5-5-5-7-7-7-7-7-7-7-7------------|
D|-5-5-5-5-5-5-5-5-7-7-7-7-7-7-7-7------------|
A|-3-3-3-3-3-3-3-3-5-5-5-5-5-5-5-5------------|
E|--------------------------------------------|

Verse: (Walk On Eggshells On My Old Stomping Ground...)
e|--------------------------------------------|
B|--------------------------------------------|
G|--------------------------------------------|
D|-5-5-5-5-5-5-5-5-2-2-2-2-2-2-2-2------------|
A|-5-5-5-5-5-5-5-5-2-2-2-2-2-2-2-2------------|
E|-3-3-3-3-3-3-3-3-0-0-0-0-0-0-0-0------------|

e|--------------------------------------------|
B|--------------------------------------------|
G|-5-5-5-5-5-5-5-5-7-7-7-7-7-7-7-7------------|
D|-5-5-5-5-5-5-5-5-7-7-7-7-7-7-7-7------------| (Play This Sequence Twice)
A|-3-3-3-3-3-3-3-3-5-5-5-5-5-5-5-5------------|
E|--------------------------------------------|


Chorus: (Sometimes I Need To Apolagize...)
e|--------------------------------------------|
B|--------------------------------------------|
G|-5-5-5-5-5-5-5-5-7-7-7-7-7-7-7-7------------|
D|-5-5-5-5-5-5-5-5-7-7-7-7-7-7-7-7------------| X3
A|-3-3-3-3-3-3-3-3-5-5-5-5-5-5-5-5------------|
E|--------------------------------------------|

Then: (Or Only Say Hello)
e|--------------------------------------------|
B|--------------------------------------------|
G|--------------------------------------------|
D|-5-5-3-3-2-2-2-2----------------------------|
A|-5-5-3-3-2-2-2-2----------------------------|
E|-3-3-1-1-0-0-0-0----------------------------|

(Sometimes I Still Feel I'm Walking Alone)
e|--------------------------------------------|
B|--------------------------------------------|
G|-5-5-5-5-5-5-5-5-7-7-7-7-7-7-7-7------------|
D|-5-5-5-5-5-5-5-5-7-7-7-7-7-7-7-7------------|
A|-3-3-3-3-3-3-3-3-5-5-5-5-5-5-5-5------------|
E|--------------------------------------------|

Pre-Solo/Chords For Solo
e|--------------------------------------------|
B|--------------------------------------------|
G|--------------------------------------------|
D|-5-5-5-5-5-5-5-5-2-2-2-2-2-2-2-2------------| X2
A|-5-5-5-5-5-5-5-5-2-2-2-2-2-2-2-2------------|
E|-3-3-3-3-3-3-3-3-0-0-0-0-0-0-0-0------------|
(Whilst Hamromica is playing)

Guitar Solo
e|----------------|-----------------------------|
B|--8-------------|--------8-------------10-----|
G|----7----9(11)9-|------9---9--------11----11--|
D|------9---------|-9>10--------10>12---------12| X2
A|----------------|-----------------------------|
E|----------------|-----------------------------|

Chorus: (Sometimes I Need To Apolagize...)
e|--------------------------------------------|
B|--------------------------------------------|
G|-5-5-5-5-5-5-5-5-7-7-7-7-7-7-7-7------------|
D|-5-5-5-5-5-5-5-5-7-7-7-7-7-7-7-7------------| X3
A|-3-3-3-3-3-3-3-3-5-5-5-5-5-5-5-5------------|
E|--------------------------------------------|

Then: (Or Only Say Hello)
e|--------------------------------------------|
B|--------------------------------------------|
G|--------------------------------------------|
D|-5-5-3-3-2-2-2-2----------------------------|
A|-5-5-3-3-2-2-2-2----------------------------|
E|-3-3-1-1-0-0-0-0----------------------------|

(Sometimes I Still Feel I'm Walking Alone)
e|--------------------------------------------|
B|--------------------------------------------|
G|-5-5-5-5-5-5-5-5-7-7-7-7-7-7-7-7------------|
D|-5-5-5-5-5-5-5-5-7-7-7-7-7-7-7-7------------|
A|-3-3-3-3-3-3-3-3-5-5-5-5-5-5-5-5------------|
E|--------------------------------------------|

Outro:
e|--------------------------------------------|
B|--------------------------------------------|
G|--------------------------------------------|
D|-5-5-5-5-5-5-5-5-2-2-2-2-2-2-2-2------------| X2
A|-5-5-5-5-5-5-5-5-2-2-2-2-2-2-2-2------------|
E|-3-3-3-3-3-3-3-3-0-0-0-0-0-0-0-0------------|

And That's that!
Suggest correction
comments
print report bad tab
1 comment total.
0 reply
uncleJEREMY 52 wrote on August 8 2012, 07:51 am

pretty good :)

guest
You may want to rate the tab now too:
select rating
Please do not post tabs as comments. Select "correction" instead!