Oops, an error
Loading. Please wait.

Walking Contradiction Bass Tab

version 3
version 3

Whole song

2,465 views 6 this week
1 commentread comment
1 2 3 4 5
x 4
add to favorites
launch autoscroll
font size
0
reset
guitar tuner
Autoscroll
slow
fast
+/-
esc
set tempo
stop
Help us to improve Ultimate-Guitar.com Take our survey!
×
Artist: Green Day
Song: Walking Contradiction
Album: Insomniac

I noticed that a lot of the Green Day bass tabs, Insomniac in particular, were rather 
and lacked a lot of the octave hits, extra fills and runs, and overall flare that those 
parts really need (without them, the album becomes unbearably boring).
This song in particular caught my eye, because it was tabbed in standard tuning, when 
the songs on Insomniac are a half-step down. So I fixed that as well.


Intro
Gb:---------------------------------|
Db:-------------5h777777777-5-4-----|
Ab:-----------------------------754-|
Eb:-555555555555--------------------|

Verse
|-----------------------------|
|---------------------------7-| x4
|---55--------------75--------|
|-5----3-3-55555--5----3-3-5--|

Verse Fill
|-------------------------------|
|----------------------5-554----| x1
|---55--------------75------754-|
|-5----3-3-55555--5-------------|


Verse x4


Chorus
|------------------|   |-----------------|
|-----5------------|x2 |-----5-----------| x2
|-55--------4h5h7--|   |-55--------------|
|----3--5-5--------|   |----3--5-5555555-|


Verse Fill x1
Verse x4
Chorus x2
Verse Fill x1
Verse x1

End on either Eb-5, or Db-7. It’s hard to tell which, and it sounds good either way.

black_friday_ruled780@yahoo.com
Suggest correction
comments
print report bad tab
1 comment total.
0 reply
bassplaya_19 10 Sep 30, 2011 04:43 PM

good, but it's easier to play with regular tuning so i prefer version 1

guest
You may want to rate the tab now too:
select rating
Wanna post a correction for this tab? Suggest correction