Oops, an error
Loading. Please wait.

Warning Tab

version 1
version 1

Album

Whole song

93,326 views 36 this week
26 commentsread comments
1 2 3 4 5
x 33
add to favorites
launch autoscroll
font size
0
reset
how to read this tab
guitar tuner
Autoscroll
slow
fast
+/-
esc
set tempo
stop
Help us to improve Ultimate-Guitar.com Take our survey!
×
Author
Green Day Warning Album Tab
Warning released 2000
Tabbed by Liam
Email: guitar_rocker_47@hotmail.com 

Note: I noticed that Ultimate guitar didnt have a Green Day Warning Album tab so I
thought id tab 1 Also I have tabbed some bass parts on a couple of songs, just encase
you need it. And lastly there is a tab notation at the bottom of this tab, encase
you didn't know what some of the symbols meant.

1.      Warning
2.      Blood, Sex and booze
3.      Church on Sunday (in progress)
4.      Fashion Victim
5.      Castaway
6.      Misery
7.      Deadbeat Holiday
8.      Hold on
9.      Jackass
10.     Waiting
11.     Minority
12.     Macy's Day Parade
13.     86 (Live in Prague)  I think this track is only on special warning albums



------------------------------------------------------------------------------------
Green Day  Warning
------------------------------------------------------------------------------------
Tuning: Standard

Main Riff
e|-------------------------------------------------------------------------|G
B|-------------------------------------------------------------------------|U
G|-----------7-7-7-0-----------7-7-7-0-------------------------------------|I
D|--7-7-7-0--7-7-7-0--5-5-5-0--7-7-7-0-------------------------------------|T
A|--7-7-7-0--5-5-5-0--5-5-5-0--5-5-5-0-------------------------------------|A
E|--5-5-5-0-----------3-3-3-0----------------------------------------------|R

G|-------------------------------------------------------------------------|B
D|-----------------4-5-5-4-------------------------------------------------|A
A|--------4-5-5-7-----------7-5-5-4----------------------------------------|S
E|--5-5-7---------------------------7--------------------------------------|S

Fill 1  (the bit on the second verse where Billie sings 'or shut up and be a victim
of authority'
e|-------------------------------------------------------------------------|G
B|-------------------------------------------------------------------------|U
G|-------------------------------------------------------------------------|I
D|--7-7--7-7--9------------------------------------------------------------|T
A|--7-7--7-7--9------------------------------------------------------------|A
E|--5-5--5-5--7------------------------------------------------------------|R

G|-------------------------------------------------------------------------|B
D|-------------------------------------------------------------------------|A
A|-------------------------------------------------------------------------|S
E|--55--55--7--------------------------------------------------------------|S

Mini Bass solo   (the bit that pops up in the song every now and then, guitar
Plays some chord with effect but I don't know what that is)
G|-------------------------------------------------------------------------|B
D|-------------------------------------------------------------------------|A
A|-----4-----------------4-------------------------------------------------|S
E|--5-----5--3--0--5--5-----5--3--0----------------------------------------|S

Order

Main riff             x16
Mini bass solo        x2
Main riff             x19
Mini bass solo        x6
Main riff             x 3
Fill 1                x 1
Main riff             x 9


------------------------------------------------------------------------------------
Green Day,  Blood, sex and booze.
------------------------------------------------------------------------------------
Tuning: Standard

[Intro]
e|---------------------------------------------|
B|---------------------------------------------|
G|-9-9-9-9-9-9-9-9-9-9-9-9-9-9-9-9-------------|
D|-9-9-9-9-9-9-9-9-9-9-9-9-9-9-9-9-------------|
A|-7-7-7-7-7-7-7-7-7-7-7-7-7-7-7-7-------------|
E|---------------------------------------------|
 PM  * * * * * * * * * * * * * * * *

[Verse]
e|---------------------------------------------------------|
B|---------------------------------------------------------|
G|-9-9-9-9-9-9-9-9-9-9-9-5-5-5-5-5-5-5-5-5-5-5---5-5-------|
D|-9-9-9-9-9-9-9-9-9-9-9-5-5-5-5-5-5-5-5-5-5-5---5-5--2-2--|
A|-7-7-7-7-7-7-7-7-7-7-7-3-3-3-3-3-3-3-3-3-3-3---3-3--2-2--|
E|----------------------------------------------------0-0--|
 PM  * * * * * * * * * * * * * * * * * * * * * *

[Chorus]
e|---------------------------------------------------|
B|---------------------------------------------------|
G|-6-6-6-6-6-6-6-9-9-9-9-9-9-9-9-6-6-6-6-6-----------|
D|-6-6-6-6-6-6-6-9-9-9-9-9-9-9-9-6-6-6-6-6-7-7-7-7-9-|
A|-4-4-4-4-4-4-4-7-7-7-7-7-7-7-7-4-4-4-4-4-7-7-7-7-9-|
E|-----------------------0-0-0-0-----------5-5-5-5-7-|

[Bridge]
e|-----------------------------------------|
B|-----------------------------------------|
G|-5-5-5-5-5-5-5-6-6-6-6-6-6-6-6-7-7-7-7-9-|
D|-5-5-5-5-5-5-5-6-6-6-6-6-6-6-6-7-7-7-7-9-|
A|-7-7-7-7-7-7-7-4-4-4-4-4-4-4-4-7-7-7-7-9-|
E|-------------------------------5-5-5-5-7-|

[Interlude]
e|------------------------------------------------------------------|
B|------------------------------------------------------------------|
G|-9-9-9-9-9-9-9-9-9-9-9-9-9-9-9-9--5-5-----5-5-----5-5-----5-5-----|
D|-9-9-9-9-9-9-9-9-9-9-9-9-9-9-9-9--5-5-5-5-5-5-5-5-5-5-5-5-5-5-5-5-| x2
A|-7-7-7-7-7-7-7-7-7-7-7-7-7-7-7-7--3-3-5-5-3-3-5-5-3-3-5-5-3-3-5-5-|
E|-0-0-7-7-0-0-7-7-0-0-7-7-0-0-7-7------3-3---3-3-----3-3-----3-3---|

[Outro]
e|--------------------------------------------------------------------|
B|--------------------------------------------------------------------|
G|--9-9-9-9-9-9---7-7-7-7-7-7---6-6-6-6-6-6---5-5-5-5-5-5-------------|
D|--9-9-9-9-9-9---7-7-7-7-7-7---6-6-6-6-6-6---5-5-5-5-5-5---9---------|
A|--7-7-7-7-7-7---5-5-5-5-5-5---4-4-4-4-4-4---3-3-3-3-3-3---9---------|
E|----------------------------------------------------------7---------|

Order

[Intro]
[Verse]
[Chorus]
[Bridge]
[Intro]
[Verse]
[Chorus]
[Bridge]
[Interlude]
[Chorus]
[Interlude]
[Outro]

Green Day Church On Sunday (in progress SORRY!)

------------------------------------------------------------------------------------
Green Day Fashion Victim
------------------------------------------------------------------------------------
Tuning: Standard

[Intro]
e|---------------------------------------------------------------|
B|---------------------------------------------------------------|
G|---------------------------------------------------------------|
D|-7-7--x-x-x----------------------------------------------------|  (x8)
A|-7-7--x-x-x----------------------------------------------------|
E|-5-5--x-x-x----------------------------------------------------|

|---------------------------------------------------------------------------------|
|---------------------------------------------------------------------------------|
|-----------6-6-x-x-x---------------------7-7-x-x-x-6-6-x-x-x---------------------|
|-7-7-x-x-x-6-6-x-x-x-4-4-x-x-x-4-4-x-
Versex-x-7-7-x-x-x-6-6-x-x-x-2-2-x-x-x-2-2-x-x-x-|
|-7-7-x-x-x-4-4-x-x-x-4-4-x-x-x-4-4-x-x-x-5-5-x-x-x-4-4-x-x-x-2-2-x-x-x-2-2-x-x-x-|
|-5-5-x-x-x-----------2-2-x-x-x-2-2-x-x-x---------------------0-0-x-x-x-0-0-x-x-x-|

|---------------------------------------------------------------------------------|
|---------------------------------------------------------------------------------|
|-----------6-6-x-x-x---------------------7-7-x-x-x-----------9-9-9-9-9-9-9-9-9-9-|
|-7-7-x-x-x-6-6-x-x-x-4-4-x-x-x-4-4-x-x-x-7-7-x-x-x-7-7-x-x-x-9-9-9-9-9-9-9-9-9-9-|
|-7-7-x-x-x-4-4-x-x-x-4-4-x-x-x-4-4-x-x-x-5-5-x-x-x-7-7-x-x-x-7-7-7-7-7-7-7-7-7-7-|
|-5-5-x-x-x-----------2-2-x-x-x-2-2-x-x-x-----------5-5-x-x-x---------------------|

|---------------------------------------------------------------------------------|
|---------------------------------------------------------------------------------|
|-----------6-6-x-x-x---------------------7-7-x-x-x-6-6-x-x-x---------------------|
|-7-7-x-x-x-6-6-x-x-x-4-4-x-x-x-4-4-x-x-x-7-7-x-x-x-6-6-x-x-x-2-2-x-x-x-2-2-x-x-x-|
|-7-7-x-x-x-4-4-x-x-x-4-4-x-x-x-4-4-x-x-x-5-5-x-x-x-4-4-x-x-x-2-2-x-x-x-2-2-x-x-x-|
|-5-5-x-x-x-----------2-2-x-x-x-2-2-x-x-x---------------------0-0-x-x-x-0-0-x-x-x-|

|---------------------------------------------------------------------------------|
|---------------------------------------------------------------------------------|
|-----------6-6-x-x-x---------------------7-7-x-x-x-----------9-9-9-9-9-9-9-9-9-9-|
|-7-7-x-x-x-6-6-x-x-x-4-4-x-x-x-4-4-x-x-x-7-7-x-x-x-7-7-x-x-x-9-9-9-9-9-9-9-9-9-9-|
|-7-7-x-x-x-4-4-x-x-x-4-4-x-x-x-4-4-x-x-x-5-5-x-x-x-7-7-x-x-x-7-7-7-7-7-7-7-7-7-7-|
|-5-5-x-x-x-----------2-2-x-x-x-2-2-x-x-x-----------5-5-x-x-x---------------------|

[Chorus]
|---------------------------------------------------------------------------------|
|---------------------------------------------------------------------------------|
|-4-4-4-4-4-4-4-4-4-4-4-4---------------------------------------------------------|
|-4-4-4-4-4-4-4-4-4-4-4-4-5-5-5-5-5-5-5-5-5-5-5-2-2-2-2-2-2-2-2-2-2-2-------------|
|-2-2-2-2-2-2-2-2-2-2-2-2-5-5-5-5-5-5-5-5-5-5-5-2-2-2-2-2-2-2-2-2-2-2-------------|
|-------------------------3-3-3-3-3-3-3-3-3-3-3-0-0-0-0-0-0-0-0-0-0-0-------------|

[Bridge]
|------------------------------------------------|
|------------------------------------------------|
|------------------------------------------------|
|-7-7-7-5-5-5-4-4-4-2-2-2--7-7-7-5-5-5-4-4-4-2---|
|-7-7-7-5-5-5-4-4-4-2-2-2--7-7-7-5-5-5-4-4-4-2---|
|-5-5-5-3-3-3-2-2-2-0-0-0--5-5-5-3-3-3-2-2-2-0-4-|

[Outro]
|-----------|
|-----------|
|---7---7---|
|-7-7-7-7-7-|
|-7-5-7-5-7-|
|-5---5---5-|


Order

Intro   (One Guitar)
Intro   (Full Band)
[Verse]
[Intro]
[Verse 2]
[Chorus]
[Bridge]
[Intro]
[Verse 3]
[Chorus 2]
[Bridge]
[Bridge]
[Intro]
[Intro]
[Outro]

------------------------------------------------------------------------------------
Green Day Castaway
------------------------------------------------------------------------------------
Tuning: Standard

h = hammer-on
p = pull-off
b = bend
/ = slide up
\ = slide down
5 = power chord
 
[Intro]
e|---------------------------------------------------------------|G 
B|---------------------------------------------------------------|U   
G|-x-x-x-x---5-x-5-x-5-------------------5-5---------------------|I   
D|-x-x-x-x---5-x-5-x-5--7-7---3-x-3-x-3--5-5---------------------|T    
A|-x-x-x-x---3-x-3-x-3--7-7---3-x-3-x-3--3-3---------------------|A     
E|----------------------5-5---1-x-1-x-1--------------------------|R       
 |                                                               |      
G|---------------------------------------------------------------|B    
D|---------------------------------------------------------------|A   
A|-x-x-x-x---3-x-3-x-3-------------------3-3 --------------------|S  
E|----------------------5-5---1-x-1-x-1--------------------------|S 

[Verse]
e|---------------------------------------------------------------|G
B|---------------------------------------------------------------|U
G|-5-x-5-x-5-------------------5--5------------------------------|I
D|-5-x-5-x-5--5--5--3-x-3-x-3--5--5------------------------------|T
A|-3-x-3-x-3--5--5--3-x-3-x-3--3--3------------------------------|A    
E|------------3--3--1-x-1-x-1------------------------------------|R      
 |                                                               |       x4
G|---------------------------------------------------------------|B    
D|---------------------------------------------------------------|A   
A|-3-x-3-x-3-------------------3--3------------------------------|S  
E|------------5—5---1-x-1-x-1------------------------------------|S

[Pre-Chorus]
e|---------------------------------------------------------------|G
B|---------------------------------------------------------------|U
G|-------5-x-5-x-5--4-5--5-x-5-x-5--4-5--------------------------|I
D|-3-----5-x-5-x-5--4-5--5-x-5-x-5--4-5-5--3------5--------------|T
A|-3-x8--3-x-3-x-3--2-3--3-x-3-x-3--2-3-5--3--x8--5--------------|A
E|-1------------------------------------3--1------3--------------|R
 |                                                               |      x2
G|---------------------------------------------------------------|B
D|---------------------------------------------------------------|A
A|-------3-x-3-x-3--2-3--3-x-3-x-3--2-3--------------------------|S
E|-1-x8---------------------------------3--1--x8--3--------------|s

[Chorus]
e|---------------------------------------------------------------|G
B|-Intro x4-----------------------Intro x2-----------------------|U
G|---------------------------------------------------------------|I
D|----------------3~~---5~~--------------------------------------|T
A|----------------3~~---5~~--------------------------------------|A
E|----------------1~~---3~~--------------------------------------|R
 |                                                               |
G|---------------------------------------------------------------|B
D|--Intro x4----------------------intro x2-----------------------|A
A|---------------------------------------------------------------|S
E|----------------1~~---3~~--------------------------------------|S

[Solo]
e|-----------------------33----3--6p3---6p3---6p3---6p3--6p3-----|
B|-----------------------33----3------3-----3-----3----3-----3-6b|
G|-------------------5b-----5b-----------------------------------|
D|-verse--x2-----------------------------------------------------|
A|---------------------------------------------------------------|
E|---------------------------------------------------------------|

G|------------------------------(REST while guitar plays solo)---|
D|-verse--x2-----------------------------------------------------|
A|---------------------------------------------------------------|
E|---------------------------------------------------------------|

Order

Intro (x2 PM, x2 no PM)
[Verse 1]
[Pre-Chorus]
[Chorus]
[Verse 2]
[Pre-Chorus]
[Chorus]
[Bridge]
Verse 1 (bass and drums only)
[Pre-Chorus]
[Chorus]
Verse x 4        

------------------------------------------------------------------------------------
Green Day Misery
------------------------------------------------------------------------------------
Tuning: 1/2 step down

Note: for this song all I have is intro, solo and bass I cant work out the
chords I think they could be   Bm | F# |  E | G |  but I don't know what order
or when they are played. I know its not very good but its all I can work out SORRY!

[Intro]
e|---------------------------------------------------------------|
B|-/12-11-12-----8--------12-11-12--14-15----12------------------|
G|------------11---9-11-------------------15---------------------|
D|---------------------------------------------------------------|
A|---------------------------------------------------------------|
E|---------------------------------------------------------------|
                                                
e|---------------------------------------------------------------|
B|-------------------12--------------15-12-----------------------|
G|-11-11-10-9--11-12----11--11-12-11-----------------------------|
D|---------------------------------------------------------------|
A|---------------------------------------------------------------|
E|---------------------------------------------------------------|

[Verse]
G|---------------------------------------------------------------|
D|---------------------------------------------------------------|
A|-2----2----2----2----2----2-------1----1---2----2--------------|
E|---2----2----2----2----2----2---2----2-------2----2---0-----3--|

G|---------------------------------------------------------------|
D|---------------------------------------------------------------|
A|---1----1---2----2---------------------------------------------|
E|-2----2-------2----2-------------------------------------------|

[Chorus]
G|---------------------------------------------------------------|
D|---------------------------------------------------------------|
A|---1----1---2----2---------------------------------------------|
E|-2----2-------2----2-----0----3-----2--------------------------|

[Bridge]
G|---------------------------------------------------------------|
D|---------------------------------------------------------------|
A|-------2--------2--------2------2------------------------------|
E|-3--2-----3--2-----3--2------2-----2---3---2-------------------|

[Solo]
(Played on mandolin) play really fast
e|---------------------------------------------------------------|
B|-15-15-15-15-15--12--14--15-15-15-15-15--12--14--15------------|
G|-----------------------------------------------------11--------|
D|---------------------------------------------------------------|
A|---------------------------------------------------------------|
E|---------------------------------------------------------------|

e|---------------------------------------------------------------|
B|-15-15-15-15-17--14-15-11--15-14-12-14-15-14-12----11-12-14-15-|
G|-------------------------------------------------11------------|
D|---------------------------------------------------------------|
A|---------------------------------------------------------------|
E|---------------------------------------------------------------|
                                 |guitar|
e|-----------------------------|---------------------------------|
B|-14-12---14--11-----15-14-12-|---------------------------------|
G|----------------11-----------|---------------------------------|
D|-----------------------------|-0--0-0--0---0-2-0---0-----------|
A|-----------------------------|-----------4-------4----4--1-----|
E|-----------------------------|------------------------------2--|

e|---------------------------------------------------------------|
B|---------------------------------------------------------------|
G|---------------------------------------------------------------|
D|-0-0-0-2-0---0-0----0------------------------------------------|
A|-----------4------4-----4--1---5-4-2---------------------------|
E|----------------------------2----------------------------------|

Order

[Intro]
[Verse 1]
[Verse 2]
[Chorus 1]
[Intro]
[Verse 3]
[Verse 4]
[Intro]
[Chorus 2]
[Bridge]
[Solo]
[Chorus 3]
[Intro]

------------------------------------------------------------------------------------
Green Day Deadbeat holiday
------------------------------------------------------------------------------------
Tuning: Standard

[Verse 1]
e|--------------------------------------------------|
B|--------------------------------------------------|
G|----7-----5--------5--7------7-----5--------5--7--|
D|-5--7--5--5--5--2--5--7---5--7--5--5--5--2--5--7--|
A|-5--5--5--3--5--2--3--5---5--5--5--3--5--2--3--5--|
E|-3-----3-----3--0---------3-----3-----3--0--------|

Pre Chorus 
e|---------------------------------------------------------------------------|
B|---------------------------------------------------------------------------|
G|-4----4-5----5------5----------------------4-4-4-4-4-4-4-4-5-5-5-5-5-5-5-5-|
D|-4----4-5----5-5----5-5----2-2-2-2-2-2-2-2-4-4-4-4-4-4-4-4-5-5-5-5-5-5-5-5-|
A|-2----2-3----3-5----3-5----2-2-2-2-2-2-2-2-2-2-2-2-2-2-2-2-3-3-3-3-3-3-3-3-|
E|---------------3------3----0-0-0-0-0-0-0-0---------------------------------|
 Pm                              * * * * * * * * * * * * * * * * * * * * * *

e|---------------------------------------------|
B|------------------------8--8--7--------------|
G|7-7-7-7-7-7-7-7---5--5-----------------------|
D|7-7-7-7-7-7-7-7------------------------------|
A|5-5-5-5-5-5-5-5------------------------------|
E|---------------------------------------------|

[Chorus]
e|---------------------------------------------------------------------------|
B|---------------------------------------------------------------------------|
G|-------------4-4-4-4-4-4-4-4-5-5-5-5-5-5-----------------5-5-5-5-5-5-------|
D|-5-5-5-5-5-5-4-4-4-4-4-4-4-4-5-5-5-5-5-5-5-5-5-5-5-5-5-5-5-5-5-5-5-5-5-5-5-|
A|-5-5-5-5-5-5-2-2-2-2-2-2-2-2-3-3-3-3-3-3-5-5-5-5-5-5-5-5-3-3-3-3-3-3-5-5-5-|
E|-3-3-3-3-3-3-----------------------------3-3-3-3-3-3-3-3-------------3-3-3-|

e|------------------------------------------------------------------|
B|------------------------------------------------------------------|
G|-----------------------7-7-7-7-7-7-7-7----------------------------|
D|-5-5-5-5-5-3-3-3-3-3-3-7-7-7-7-7-7-7-7----------------------------|
A|-5-5-5-5-5-3-3-3-3-3-3-5-5-5-5-5-5-5-5----------------------------|
E|-3-3-3-3-3-1-1-1-1-1-1--------------------------------------------|

Verse  Note: im not 100% on the pm here just play what sounds right
e|---------------------------------------------------------------------------|
B|---------------------------------------------------------------------------|
G|---------------7-7-7-7-7-7-7---------------5-5-5-5-5-5-5-------------------|
D|-5-5-5-5-5-5-5-7-7-7-7-7-7-7-5-5-5-5-5-5-5-5-5-5-5-5-5-5-5-5-5-5-5-5-5-5-2-|
A|-5-5-5-5-5-5-5-5-5-5-5-5-5-5-5-5-5-5-5-5-5-3-3-3-3-3-3-3-5-5-5-5-5-5-5-5-2-|
E|-3-3-3-3-3-3-3---------------3-3-3-3-3-3-3---------------3-3-3-3-3-3-3-3-0-|
Pm   * *   * *   * * *   * * *   * * *   * *   * * *   *
 
e|-----------------------------------------------------------------|
B|-----------------------------------------------------------------|
G|---------------5-5-5-5-5-5-5-5-7-7-7-7-7-7-7-7-------------------|
D|-2-2-2-2-2-2-2-5-5-5-5-5-5-5-5-7-7-7-7-7-7-7-7-------------------|
A|-2-2-2-2-2-2-2-3-3-3-3-3-3-3-3-5-5-5-5-5-5-5-5-------------------|
E|-0-0-0-0-0-0-0---------------------------------------------------|

Pre Chorus 
e|---------------------------------------------------------------------------|
B|---------------------------------------------------------------------------|
G|-4----4-5----5------5----------------------4-4-4-4-4-4-4-4-5-5-5-5-5-5-5-5-|
D|-4----4-5----5-5----5-5----2-2-2-2-2-2-2-2-4-4-4-4-4-4-4-4-5-5-5-5-5-5-5-5-|
A|-2----2-3----3-5----3-5----2-2-2-2-2-2-2-2-2-2-2-2-2-2-2-2-3-3-3-3-3-3-3-3-|
E|---------------3------3----0-0-0-0-0-0-0-0---------------------------------|
 Pm                              * * * * * * * * * * * * * * * * * * * * * *

e|---------------------------------------------|
B|------------------------8--8--7--------------|
G|7-7-7-7-7-7-7-7---5--5-----------------------|
D|7-7-7-7-7-7-7-7------------------------------|
A|5-5-5-5-5-5-5-5------------------------------|
E|---------------------------------------------|

[Bridge]
e|---------------------------------------------------------------|
B|---------------8--8-7------------------------------------------|
G|-7-7-7--7-5--5--------(x8)-------------------------------------|
D|---------------------------------------------------------------|
A|---------------------------------------------------------------|
E|---------------------------------------------------------------|

End: Not to sure on this bit just play what sounds right
e|---------------------------------------------------------------|
B|---------------------------------------------------------------|
G|-7-7-------7-7-------------------------------------------------|
D|-7-7--5-5--7-7--5-5-----x6-------------------------------------|
A|-5-5--5-5--5-7--5-5--------------------------------------------|
E|------3-3-------3-3--------------------------------------------|

Order

[Verse 1]
[Pre-Chorus 1]
[Chorus]
[Verse 2]
[Pre-Chorus 1]
[Chorus]
[Bridge]
[Pre-Chorus 2]
Chorus x2


------------------------------------------------------------------------------------
Green Day Hold on
------------------------------------------------------------------------------------
Tuning: Standard


Intro played along with harmonica
e|-3-3--0-0--3-3--0-0--3-3--0-0--2-2-2-2-2-2--------------------------------|
B|-3-3--1-1--3-3--1-1--3-3--1-1--3-3-3-3-3-3--------------------------------|
G|-0-0--0-0--0-0--0-0--0-0--0-0--2-2-2-2-2-2--------------------------------| x2
D|-0-0--2-2--0-0--2-2--0-0--2-2--0-0-0-0-0-0--------------------------------|
A|-2-2--3-3--2-2--3-3--2-2--3-3---------------------------------------------|
E|-3-3--0-0--3-3--0-0--3-3--0-0---------------------------------------------|

[Verse]
e|-3-3--0-0--3-3--2-2----3-3--0-0--3-3--2-2----3-3--0-0--3-3--2-2---0-0--2-2-|
B|-3-3--1-1--3-3--3-3----3-3--1-1--3-3--3-3----3-3--1-1--3-3--3-3---1-1--3-3-|
G|-0-0--0-0--0-0--2-2----0-0--0-0--0-0--2-2----0-0--0-0--0-0--2-2---0-0--2-2-|
D|-0-0--2-2--0-0--0-0----0-0--2-2--0-0--0-0----0-0--2-2--0-0--0-0---2-2--0-0-|
A|-2-2--3-3--2-2---------2-2--3-3--2-2---------2-2--3-3--2-2--------3-3------|
E|-3-3--0-0--3-3---------3-3--0-0--3-3---------3-3--0-0--3-3--------0-0------|

e|-3-3-----------------------------------------------------------------------|
B|-3-3-(Bass Fill)-----------------------------------------------------------|
G|-0-0-----------------------------------------------------------------------|
D|-0-0-----------------------------------------------------------------------|
A|-2-2-----------------------------------------------------------------------|
E|-3-3-----------------------------------------------------------------------|

e|-3-3--0-0--3-3--2-2----3-3--0-0--3-3--2-2----3-3--0-0--3-3--2-2---0-0--2-2-|
B|-3-3--1-1--3-3--3-3----3-3--1-1--3-3--3-3----3-3--1-1--3-3--3-3---1-1--3-3-|
G|-0-0--0-0--0-0--2-2----0-0--0-0--0-0--2-2----0-0--0-0--0-0--2-2---0-0--2-2-|
D|-0-0--2-2--0-0--0-0----0-0--2-2--0-0--0-0----0-0--2-2--0-0--0-0---2-2--0-0-|
A|-2-2--3-3--2-2---------2-2--3-3--2-2---------2-2--3-3--2-2--------3-3------|
E|-3-3--0-0--3-3---------3-3--0-0--3-3---------3-3--0-0--3-3--------0-0------|

e|-3-3-----------------------------------------------------------------------|
B|-3-3-(Bass Fill)-----------------------------------------------------------|
G|-0-0-----------------------------------------------------------------------|
D|-0-0-----------------------------------------------------------------------|
A|-2-2-----------------------------------------------------------------------|
E|-3-3-----------------------------------------------------------------------|

Chorus      note: im not 100% on the number of times you play these chords I just
tabbed what I thought anyway listen To the cd and you'll pick up the rhythm.
The chords are right though

e|-0-0-0-0-0---3-3-3-3---2-2---3-3-3-3-3---0-0-0-0---3-3-3-3--0-0-0-0-0--2-2-2-2-2-|
B|-0-0-0-0-0---3-3-3-3---3-3---3-3-3-3-3---0-0-0-0---3-3-3-3--1-1-1-1-1--3-3-3-3-3-|
G|-0-0-0-0-0---0-0-0-0---2-2---0-0-0-0-0---0-0-0-0---0-0-0-0--0-0-0-0-0--2-2-2-2-2-|
D|-2-2-2-2-2---0-0-0-0---0-0---0-0-0-0-0---2-2-2-2---0-0-0-0--2-2-2-2-2--0-0-0-0-0-|
A|-2-2-2-2-2---2-2-2-2---0-0---2-2-2-2-2---2-2-2-2---2-2-2-2--3-3-3-3-3--0-0-0-0-0-|
E|-0-0-0-0-0---3-3-3-3---------3-3-3-3-3---0-0-0-0---3-3-3-3-----------------------|

Solo  Verse chords played in background

e|---------------------------------------------------------------|
B|----------------------7-8-10--8--8-10--7--8-10--8--8-10--8-7-8-|
G|-4--5--4--7--4--5--4--7-7-7---7--7-7---7--7-7---7--7-7---7-7-7-|
D|-5--5--5--5--5--5--5-------------------------------------------|
A|---------------------------------------------------------------|
E|---------------------------------------------------------------|

e|---------------------------------------------------------------|
B|----------------------10-8-7--8--8-10--7--8-10--8--8-10--8-7-8-|
G|-4--5--4--7--4--5--4--7-------7--7-7---7--7-7---7--7-7---7-7-7-|
D|-5--5--5--5--5--5--5-------------------------------------------|
A|---------------------------------------------------------------|
E|---------------------------------------------------------------|

e|---------------------------------------------------------------|
B|----------------------7-8-10--8--8-10--7--8-10--8--8-10--8-7-8-|
G|-4--5--4--7--4--5--4--7-7-7---7--7-7---7--7-7---7--7-7---7-7-7-|
D|-5--5--5--5--5--5--5-------------------------------------------|
A|---------------------------------------------------------------|
E|---------------------------------------------------------------|

Order

[Intro]
[Verse 1]
[Chorus]
[Intro]
[Verse 2]
[Chorus]
[Intro]
[Solo]
[Chorus]
[Intro]
(end on G) |320033|


------------------------------------------------------------------------------------
Green Day Jackass
------------------------------------------------------------------------------------
Tuning Standard

[Intro]
E|-------------------------------------------------------------------------------|
B|-------------------------------------------------------------------------------|
G|-5-5-4-4-2-2-2-2-2-2--5-5-4-4-2-2-2-2-2-2--5-5-4-4-2-2-2-2-2-2-7-7-7-7-7-7-7-7-|
D|-5-5-4-4-2-2-2-2-2-2--5-5-4-4-2-2-2-2-2-2--5-5-4-4-2-2-2-2-2-2-7-7-7-7-7-7-7-7-|
A|-3-3-2-2-0-0-0-0-0-0--3-3-2-2-0-0-0-0-0-0--3-3-2-2-0-0-0-0-0-0-5-5-5-5-5-5-5-5-|
E|-------------------------------------------------------------------------------|

Pre verse/bridge 1
e|--------------------------------------|
B|--------------------------------------|
G|---------------3-3--------------------|
D|-5-5-5-5-5-3-3-3-3--------------------|
A|-5-5-5-5-5-3-3-1-1--------------------|
E|-3-3-3-3-3-1-1------------------------|

[Verse]
e|------------------------------------------------------------------------|
B|------------------------------------------------------------------------|
G|-----------------------------------7-7-7-7-7-7-7-7-5-5-4-4-2-2-2-2-2-2--|
D|-5-5-5-5-5-5-5-5-5-5-5-5-5-5-5-5---7-7-7-7-7-7-7-7-5-5-4-4-2-2-2-2-2-2--|
A|-5-5-5-5-5-5-5-5-5-5-5-5-5-5-5-5---5-5-5-5-5-5-5-5-3-3-2-2-0-0-0-0-0-0--|
E|-3-3-3-3-3-3-3-3-3-3-3-3-3-3-3-3----------------------------------------|

e|-----------------------------------------------------------|
B|-----------------------------------------------------------|
G|-5-5-4-4-2-2-2-2-2-2--5-5-4-4-2-2-2-2-2-2--7-7-7-7-7-7-7-7-|
D|-5-5-4-4-2-2-2-2-2-2--5-5-4-4-2-2-2-2-2-2--7-7-7-7-7-7-7-7-|
A|-3-3-2-2-0-0-0-0-0-0--3-3-2-2-0-0-0-0-0-0--5-5-5-5-5-5-5-5-|
E|-----------------------------------------------------------|


[Chorus]
e|-----------------------------------------------------------------|
B|-----------------------------------------------------------------|
G|---------------------------------5-5-5-5-5-5-5-5-----------------|
D|-2-2-2-2-2-2-2-2-9-9-9-9-9-9-9-9-5-5-5-5-5-5-5-5-5-5-5-5-4-4-4-4-|
A|-2-2-2-2-2-2-2-2-9-9-9-9-9-9-9-9-3-3-3-3-3-3-3-3-5-5-5-5-4-4-4-4-|
E|-0-0-0-0-0-0-0-0-7-7-7-7-7-7-7-7-----------------3-3-3-3-2-2-2-2-|

e|-----------------------------------------------------------------|
B|-----------------------------------------------------------------|
G|---------------------------------5-5-5-5-5-5-5-5-7-7-7-7-7-7-7-7-|
D|-2-2-2-2-2-2-2-2-9-9-9-9-9-9-9-9-5-5-5-5-5-5-5-5-7-7-7-7-7-7-7-7-|
A|-2-2-2-2-2-2-2-2-9-9-9-9-9-9-9-9-3-3-3-3-3-3-3-3-5-5-5-5-5-5-5-5-|
E|-0-0-0-0-0-0-0-0-7-7-7-7-7-7-7-7---------------------------------|

  
Bridge 2                              outro

e|-------------------|                e|-----------------------|
B|-------------------|                B|-----------------------|
G|-7-7-7-7-5-5-12-12-|                G|-5----4----2----2------|
D|-7-7-7-7-5-5-12-12-|                D|-5----4----2----2----2-|
A|-5-5-5-5-3-3-10-10-|                A|-3----2----0----0----2-|
E|-------------------|                E|---------------------0-|

Saxophone Solo:
E|-------------------------------------------------------|
B|-------------------------------------------------5-----|
G|-7--7--7--7--7--5--5--4--5---x3---7--7--7--7--7-----7--|
D|-0--0--0--0--0--0--0--0--0--------0--0--0--0--0--------|
A|-------------------------------------------------------|
E|-------------------------------------------------------|


[Intro]     x1
[Pre verse/bridge 1]    x4
[Verse]   x2
[Chorus]
[Verse]
[Chorus]
Saxophone Solo with Bridge 2 x 4 in background 
[Bridge] 2 x 4 in fore ground
[Verse]
[Outro]

------------------------------------------------------------------------------------
Green Day Waiting
------------------------------------------------------------------------------------
Tuning Standard

[Intro]
e|---------------------------------------------------------------|
B|---------------------------------------------------------------|
G|---------------6-6-6-6-6-6-----------------6-6-6-6-6-6---------|
D|-6-6-6-6-6-6---6-6-6-6-6-6---8-8-8-8-8-8---6-6-6-6-6-6---------|  x2 with guitar 
A|-6-6-6-6-6-6---4-4-4-4-4-4---8-8-8-8-8-8---4-4-4-4-4-4---------|  (clean)
E|-4-4-4-4-4-4-----------------6-6-6-6-6-6-----------------------|

[Verse]   Note: there is just a slight difference from the intro 
but there is a difference

e|---------------------------------------------------------------|
B|---------------------------------------------------------------|
G|---------------6-6-6-6-6-6-6----------------6-6-6-6-6-6-6------|
D|-6-6-6-6-6-6---6-6-6-6-6-6-6--8-8-8-8-8-8---6-6-6-6-6-6-6------|  x4 with guitar
A|-6-6-6-6-6-6---4-4-4-4-4-4-4--8-8-8-8-8-8---4-4-4-4-4-4-4------|  (distortion)
E|-4-4-4-4-4-4------------------6-6-6-6-6-6----------------------|

[Chorus]
e|---------------------------------------------------------------|
B|---------------------------------------------------------------|
G|---------------------------------------------------------------|
D|-3-3-3-3-3-3---2-2-2-2-2-2---6-6-6-6-6-6---8-8-8-8-8-8-8-------|
A|-3-3-3-3-3-3---2-2-2-2-2-2---6-6-6-6-6-6---8-8-8-8-8-8-8-------|
E|-1-1-1-1-1-1---0-0-0-0-0-0---4-4-4-4-4-4---6-6-6-6-6-6-6-------|

[Bridge]
e|---------------------------------------------------------------|
B|---------------------------------------------------------------|
G|-6-6-6-----------6-6-6-----------------------------------------|
D|-6-6-6---6-6-6---6-6-6-----------------------------------------|
A|-4-4-4---6-6-6---4-4-4-----------------------------------------|
E|---------4-4-4-------------------------------------------------|

Play verse 1 again
Play chorus again

[Bridge 2]
e|-------------------------------------------------------------------------------|
B|-------------------------------------------------------------------------------|
G|-6-6-6---------6-6-6---------6---6----------6-6-6---------6-----8-8-8-8-8-8-8--|
D|-6-6-6--6-6-6--6-6-6--6-6-6--6-6-6-6--(X3)--6-6-6--6-6-6--6-6---8-8-8-8-8-8-8--|
A|-4-4-4--6-6-6--4-4-4--6-6-6--4-6-4-6--------4-4-4--6-6-6--4-6---6-6-6-6-6-6-6--|
E|--------4-4-4---------4-4-4----4---4---------------4-4-4----4------------------|

[Solo]  Note: verse chords are also played in the background 

E|----------------------------------------------------------1---------4---|
B|------------------------------------------------------3-----3-----1-----|
G|--8-5b--3-5-6-5-3--8-5b--3-5-6-5-3--5-1--3-5-6-5-3--3---3-----3-1-------|
D|------------------------------------------------------------------------|
A|------------------------------------------------------------------------|
E|------------------------------------------------------------------------|

E|--------9----12-9------------9----12-9----------9----12-9-------------|
B|-----10---10------10------10---10------10----10---10------10----------|
G|--11-------------------10------------------9------------------7/3-----|
D|----------------------------------------------------------------------|
A|----------------------------------------------------------------------|
E|----------------------------------------------------------------------|

Play Bridge 2 again


[Interlude]   Note the bit with only guitar played clean no bass or drums

e|----------------------------------------------------------------------------------------|
B|----------------------------------------------------------------------------------------|
G|---------------6-6-6-6-6-6-6---------------6-6-6-6-6-6-6------------------6-6-6-6-6-6-6-|
D|-6-6-6-6-6-6---6-6-6-6-6-6-6--8-8-8-8-8-8--6-6-6-6-6-6-6----6-6-6-6-6-6---6-6-6-6-6-6-6-|
A|-6-6-6-6-6-6---4-4-4-4-4-4-4--8-8-8-8-8-8--4-4-4-4-4-4-4----6-6-6-6-6-6---4-4-4-4-4-4-4-| 
E|-4-4-4-4-4-4------------------6-6-6-6-6-6-------------------4-4-4-4-4-4-----------------|
     ^   ^   ^     ^   ^   ^    ^   ^   ^    ^   ^   ^   ^      ^   ^   ^     ^   ^   ^  

e|--------------------------------------------------------------------------|
B|--------------------------------------------------------------------------|
G|--------------6-6-6-6-6-6-6-----------------6-6-6-6-6-6-6-----------------|
D|-8-8-8-8-8-8--6-6-6-6-6-6-6---6-6-6-6-6-6---6-6-6-6-6-6-6---8-8-8-8-x-8---|
A|-8-8-8-8-8-8--4-4-4-4-4-4-4---6-6-6-6-6-6---4-4-4-4-4-4-4---8-8-8-8-x-8---|  
E|-6-6-6-6-6-6------------------4-4-4-4-4-4-------------------6-6-6-6-x-6---|
     ^   ^   ^    ^   ^   ^     ^   ^   ^     ^   ^   ^   ^     ^   ^ 

Play verse again but only three times not four

End
e|---------------------------------------------------------------|
B|---------------------------------------------------------------|
G|---------------6-6-6-6-6-6-6----------------6~~~---------------|
D|-6-6-6-6-6-6---6-6-6-6-6-6-6--8-8-8-8-8-8---6~~~---------------|
A|-6-6-6-6-6-6---4-4-4-4-4-4-4--8-8-8-8-8-8---4~~~---------------|
E|-4-4-4-4-4-4------------------6-6-6-6-6-6----------------------|

------------------------------------------------------------------------------------
Green Day Minority
------------------------------------------------------------------------------------
Tuning: Standard

[Intro]
E|---------|---------|------0--|----------|----------|---------|-----------|
B|------1--|------3--|--1----1-|------1---|------1---|------3--|-----------|
G|---0---0-|---0---0-|----2----|--------0-|--------0-|---0---0-|-2-0---0---|
D|-----2---|----0----|-3-------|-0h2------|-0h2------|----0----|-3-2-0-2---|
A|--3------|---------|---------|-----3----|-----3----|---------|-------3---|
E|---------|-3-------|---------|----------|----------|-3-------|-----------|

[Chorus]
E|--------------------------------------------------------|
B|--------------------------------------------------------|
G|—x-x-5-5-5-5--------------------------------------------|
D|—x-x-5-5-5-5--3-3-3-3--5-5-5-5--3-3-3-3-----------------|
A|—x-x-3-3-3-3--3-3-3-3--5-5-5-5--3-3-3-3-----------------|
E|--------------1-1-1-1--3-3-3-3--1-1-1-1-----------------|
   

Verse  I got the verse chords and order of play off a buddy he says there right but I don't
know the rhythm so if any one does could you please email me with it.
   
    C  G5 Fmaj7  C  C G5  F  G
E|------------------------1--3--- 
B|--1--3---1-----1--1--3--1--3--- 
G|--0--0---2-----0--0--0--2--0--- 
D|--2--0---0-----2--2--0--3--0--- 
A|--3--x---3-----3--3--x-----2--- 
E|-----3---------------3-----3--- 
   
    C  G5 Fmaj7  C  C  F  G5 C
E|---------------------1--------- 
B|--1--3---1-----1--1--1--3--1--- 
G|--0--0---2-----0--0--2--0--0--- 
D|--2--0---0-----2--2--3--0--2--- 
A|--3--x---3-----3--3-----x--3--- 
E|-----3------------------3------ 

[Bridge]

E-----------------------------------------------------------------------------------|
B-----------------------------------------------------------------------------------|
G-----------------9---10-10-10-10---------------------------------------------------|
D--7-7-7-7-7-7-7--9---10-10-10-10--10-10-10-10---7-7-7-7-7-7-7--2--3-3-3-3--5-5-5-5-|
A--7-7-7-7-7-7-7--7---8--8--8--8---10-10-10-10---7-7-7-7-7-7-7--2--3-3-3-3--5-5-5-5-|
E--5-5-5-5-5-5-5-------------------8--8--8--8----5-5-5-5-5-5-5--0--1-1-1-1--3-3-3-3-|

E|-------------------------------------------------------------------------------------------|
B|-------------------------------------------------------------------------------------------|
G|---------------9--10-10-10-10------------------------------------------------------------4-|
D|-7-7-7-7-7-7-7-9--10-10-10-10--10-10-10-10--7-7-7-7-7-7-7--3--5-5-x-x-5-5-x-x-5-5-5-5-5--4-|
A|-7-7-7-7-7-7-7-7--8--8--8--8---10-10-10-10--7-7-7-7-7-7-7--3--5-5-x-x-5-5-x-x-5-5-5-5-5--2-|
E|-5-5-5-5-5-5-5-----------------8--8--8--8---5-5-5-5-5-5-5--1--3-3-x-x-3-3-x-x-3-3-3-3-3----|


Solo (chorus chords played in background)
E-----------8-----------------------8----8-----8---|
B--5--6--8-----8--6--5-----5--6--8-----6----6------|
G-----------------------5--------------------------|
D--------------------------------------------------|
A--------------------------------------------------|
E--------------------------------------------------|

Intro   (acoustic guitar)
[Chorus]   x4
[Verse]
[Chorus]   x4
[Bridge]
[Verse]   (with accordion played in the background)
[Chorus]   x4
[Bridge]  (with no lyrics)
[Verse]   (again with accordion)
[Chorus]   x4
[Solo]    (with chorus played x4 in background)

Play  a |355xxx|
Intro   (acoustic guitar)


------------------------------------------------------------------------------------
Green Day Macy's Day Parade
------------------------------------------------------------------------------------
Tuning: Standard
Note: very simple song I think this tab is right it only took 2mins to write it
So it might have one or two errors

[Verse]
E--------------------------------------------------------------------|
B--4-4-x-4-4-4-x-4-4-4-x-4-4-4-x-------------------------------------|
G--4-4-x-4-4-4-x-4-4-4-x-4-4-4-x-------------------------------------|
D--4-4-x-4-4-4-x-4-4-4-x-4-4-4-x-6-6-x-6-6-6-x-6-6-6-x-6-6-6-x-------|
A--2-2-x-2-2-2-x-2-2-2-x-2-2-2-x-6-6-x-6-6-6-x-6-6-6-x-6-6-6-x-------|
E--------------------------------4-4-x-4-4-4-x-4-4-4-x-4-4-4-x-------|

E--0-0-x-0-0-0-x-----------------------------------------------------|
B--0-0-x-0-0-0-x---------------4-4-x-4-4-4-x-4-4-4-x-4-4-4-x---------|
G--x-x-x-x-x-x-x---------------4-4-x-4-4-4-x-4-4-4-x-4-4-4-x---------|
D--2-2-x-2-2-2-x-4-4-x-4-4-4-x-4-4-x-4-4-4-x-4-4-4-x-4-4-4-x---------|
A--2-2-x-2-2-2-x-4-4-x-4-4-4-x-2-2-x-2-2-2-x-2-2-2-x-2-2-2-x---------|
E--0-0-x-0-0-0-x-2-2-x-2-2-2-x---------------------------------------|

[Chorus]
E--------------------------------------------------------------------|
B--------------------------------------------------------------------|
G--9-9-x-9-9-9-x-9-9-9-x-9-9-9-x-1111-x-111111-x-111111-x-111111-x---|
D--9-9-x-9-9-9-x-9-9-9-x-9-9-9-x-1111-x-111111-x-111111-x-111111-x---|
A--7-7-x-7-7-7-x-7-7-7-x-7-7-7-x-9-9--x-9-9-9--x-9-9-9--x-9-9-9--x---|
E--------------------------------------------------------------------|

E--------------------------------------------------------------------|
B--------------------------------------------------------------------|
G--9-9-x-9-9-9-x-9-9-9-x-9-9-9-x-------------------------------------|
D--9-9-x-9-9-9-x-9-9-9-x-9-9-9-x-4-4-x-4-4-4-x-4-4-4-x-4-4-4-x-------|
A--7-7-x-7-7-7-x-7-7-7-x-7-7-7-x-4-4-x-4-4-4-x-4-4-4-x-4-4-4-x-------|
E--------------------------------2-2-x-2-2-2-x-2-2-2-x-2-2-2-x-------|

[Bridge]
"because I'm thinking' 'about a brand new hope..."
E--------------------------------------------------------------------|
B--------------------------------------------------------------------|
G--------------------------------------------------------------------|
D--9-9-8-8-6-6-4-4-2-2-2-2-2-2-2-2-4-4-4-4-4-------------------------|
A--9-9-8-8-6-6-4-4-2-2-2-2-2-2-2-2-4-4-4-4-4-------------------------|
E--7-7-6-6-4-4-2-2-0-0-0-0-0-0-0-0-2-2-2-2-2-------------------------|

Order

[Verse]
[Chorus]
[Verse]
[Chorus]
[Bridge]
[Verse]
[Chorus]
[Bridge]
[Bridge]
[Bridge]
Verse (only the first top bar)


------------------------------------------------------------------------------------
Green Day 86 
------------------------------------------------------------------------------------
Tuning: 1/2 step down
One of the greatest songs of the warning album and also one of the easiest to play, ENJOY!  

Intro/chorus
E|-----------------------------------------------------------------|
B|-----------------------------------------------------------------|
G|-9-9-9-9-9-9-9---------------------------------------------------|
D|-9-9-9-9-9-9-9--6-6-6-6-6-6-7-7-7-7-7-7-7-7-7-7-7-7-7-7----------|
A|-7-7-7-7-7-7-7--6-6-6-6-6-6-7-7-7-7-7-7-7-7-7-7-7-7-7-7----------|
E|----------------4-4-4-4-4-4-5-5-5-5-5-5-5-5-5-5-5-5-5-5----------|

[Verse]
E|-----------------------------------------------------------------------------------------------|
B|-----------------------------------------------------------------------------------------------|
G|-----------------------------------------------------------------------------------------------|
D|-2-2-2-2-2-2-2-2-2-2-2-2-2-2-2--9-9-9-9-9-9-9-9-9-9-9--7-7-7-7-7-7-7-7--2-2-2-2-2-2-2-2-2--7-7-|
A|-2-2-2-2-2-2-2-2-2-2-2-2-2-2-2--9-9-9-9-9-9-9-9-9-9-9--7-7-7-7-7-7-7-7--2-2-2-2-2-2-2-2-2--7-7-|
E|-0-0-0-0-0-0-0-0-0-0-0-0-0-0-0--7-7-7-7-7-7-7-7-7-7-7--5-5-5-5-5-5-5-5--0-0-0-0-0-0-0-0-0--5-5-|
pm * * * * * * * * * *   * * *    * * *   * * * *   * *  * * * *   * * *  * * * * * * * * *   

e|-----------------------------------------------------------------------------------------------|
B|-----------------------------------------------------------------------------------------------|
G|-----------------------------------------------------------------------------------------------|
D|-2-2-2-2-2-2-2-2-2-2--9-9-9-9-9-9-9-9--7-7-7-7-7-7-7--2-2-2-2-2-2-2-2-2-2-2-2-----5-5----------|
A|-2-2-2-2-2-2-2-2-2-2--9-9-9-9-9-9-9-9--7-7-7-7-7-7-7--2-2-2-2-2-2-2-2-2-2-2-2-----5-5----------|
E|-0-0-0-0-0-0-0-0-0-0--7-7-7-7-7-7-7-7--5-5-5-5-5-5-5--0-0-0-0-0-0-0-0-0-0-0-0-----7-7----------|
Pm * * * *   * * * * *  * * * *   * * * 

[Interlude]
e-------------------------------------------------------------------------------------|
B-------------------------------------------------------------------------------------|
G-------------------------------------------------------------------------------------|
D-9-9-9-9-9-9-9-9-9-9-9-9-9-7-7-7-7-7-7-7-7-7-7-7-7-----------------------------------|
A-9-9-9-9-9-9-9-9-9-9-9-9-9-7-7-7-7-7-7-7-7-7-7-7-7-----------------------------------|
E-7-7-7-7-7-7-7-7-7-7-7-7-7-5-5-5-5-5-5-5-5-5-5-5-5-----------------------------------|

[Bridge]
e--------------------------------------------------------------------------------------|
B--------------------------------------------------------------------------------------|
G-9-9-9-9-9-9-9------------------------------------------------------------------------|
D-9-9-9-9-9-9-9--6-6-6-6-6-6-7-7-7-7-7-7-7-7-7-7-7-7-7-7-------------------------------|
A-7-7-7-7-7-7-7--6-6-6-6-6-6-7-7-7-7-7-7-7-7-7-7-7-7-7-7-------------------------------|
E----------------4-4-4-4-4-4-5-5-5-5-5-5-5-5-5-5-5-5-5-5-------------------------------|


[Bridge 2]
e--------------------------------------------------------------------------------------|
B--------------------------------------------------------------------------------------|
G--------------------------------------------------------------------------------------|
D-9-9-9-9-9-9-9-9-9--7--------------9-9-9-9-9-9-7-7-7-7-7-7-7-7-7-7-7------------------|
A-9-9-9-9-9-9-9-9-7--7—(Bass Fill)--9-9-9-9-9-9-7-7-7-7-7-7-7-7-7-7-7------------------|
E-7-7-7-7-7-7-7-7-7--5--------------7-7-7-7-7-7-5-5-5-5-5-5-5-5-5-5-5------------------|

End
e---------------------------------------------------|
B---------------------------------------------------|
G---------------------------------------------------|
D-9-9-9-9-9-9-----7---------------------------------|
A-9-9-9-9-9-9-----7---------------------------------|
E-7-7-7-7-7-7-----5---------------------------------|

Order

Pick Slide
[Intro]  x2
[Verse]
[Interlude]  x2
[Chorus]     x4
[Verse]
[Interlude]  x2
[Chorus]     x4
[Bridge]     x4
[Bridge 2]
[Chorus]
[End]


And there it is Green Day Warning, The best album from green day yet.
Please rate this it took me a while to tab it.   Comments, suggestions,
corrections or any green day tabs you need email me at 
guitar_rocker_47@hotmail.com  

Also if you like this tab maybe you could return the favour and send me a
kerplunk tab it would be much appreciated, Thanks BYE


Tab Notation

.b = bend
.h = hammer-on
.p = Pull-off
.x = scratch
.~ = let ring
.Pm *** = palm mute  (the chord with a * under it you palm mute 
the chords which don't have an * underneath it you play normally)
Suggest correction
comments
print report bad tab
26 comments total. Showing first comments. show 1 bad comment
0 reply
FenderStrat1337 60 Aug 23, 2004 12:00 AM

Wow nice tab. This isnt my fave Greenday Cd but its pretty good. All the tabs were right on, keep em coming!

0 reply
The One 444 10 Aug 03, 2005 12:00 AM

i think if you would of done warning by it self in guitar and bass tabs you would of got five stars

guest
You may want to rate the tab now too:
select rating
Wanna post a correction for this tab? Suggest correction