Oops, an error
Loading. Please wait.

Warning Bass Tab

version 2
version 2
49,840 views 36 this week
19 commentsread comments
1 2 3 4 5
x 94
add to favorites
launch autoscroll
font size
0
reset
guitar tuner
Autoscroll
slow
fast
+/-
esc
set tempo
stop
Help us to improve Ultimate-Guitar.com Take our survey!
×
[Intro/Verse/Bridge/Outro]
G|---------------------------------------------------|
D|-------------------4-5-5-4-------------------------|
A|-----------4-5-5-7---------7-5-5-4-----------------|
E|-----5-5-7-------------------------7---------------|

[Chorus]
G|---------------------------------------------------|
D|---------------------------------------------------|
A|----------4---------------4------------------------|
E|--------5---5-3-0-----5-5---5-3-0------------------|
Suggest correction
comments
print report bad tab
19 comments total. Showing first comments.
+2 reply
LastRockShow 191 May 31, 2004 12:00 AM

awesome job, another way to do it is:

e|------------------------------------|
B|-----------------------------------0|
G|-----------------0-0----------------|
D|---------0-0-2-4-----4-2-0-0--------|
A|-0-0-2-4---------------------4-2---0|
E|------------------------------------|

but either way works

0 reply
borninamoshpit_ 10 Aug 29, 2004 12:00 AM

nice job...another way for that part after the chorus is

G--------------
D--------------
A---0-0-4-0----
E-----------3-0

-1 reply
grungerawker 30 Jun 11, 2005 12:00 AM

yea open is better.

guest
You may want to rate the tab now too:
select rating
Wanna post a correction for this tab? Suggest correction