Oops, an error
Loading. Please wait.

We Are The Champions Bass Tab

version 1
version 1

Whole song

Interactive

1,832 views 1 this week
no commentswrite comment
1 2 3 4 5
please rate
add to favorites
launch autoscroll
font size
0
reset
guitar tuner
Tab Pro tools
  • play this tab
  • loop segment
  • change instrument
  • show fretboard
  • metronome
Autoscroll
slow
fast
+/-
esc
set tempo
stop
Contributor
+++++++++++++++++++++++++++++++++++
| Green Day- We Are The Champions |
+++++++++++++++++++++++++++++++++++


"No time for losers cus we are the champions..."


Tuning: Standard EADG


NOTE: I've tabbed this song out from 
Green Day Live at Reading Festival 2004
here's the link 
http://www.youtube.com/watch?v=VZYGxHVyCwI

As you can see, Mike plays most of the song on 
the E string, but Ill write it down on both A and E
you can play it the way you want ;)
good luck



Pre-Chorus
"I've had my share of sand kicked in my face..."
1.
G|--------------------------------------------------------------------|
D|--------------------------------------------------------------------|
A|-----------------------------5~--4~--2~------000000-0~--0~--0~--2~--|
E|-----------------------------------------0~-------------------------|

Chorus
"We are the champions my friend..."
2.
G|------------------------------------------------------------|
D|------------------------------------------------------------|
A|-777777--------444444-0~--2~--------------------------------|
E|--------444444----------------000000-444444-5555-4-2-1~-----|

"We are the champions..."
3.
G|---------------------------------------------------------------------|
D|---------------------------------------------------------------------|
A|---------------000000-000000-777777-555555--------000000-2-2~--------|
E|-222222-222222-----------------------------333333--------------------|

Verse
"I've taken my bows..."
4.
G|---------------------------------------------------------|
D|---------------------------------------------------------|
A|-2~------------2~------------2~------------2~------------|
E|-------2-2~----------2-2~----------2-2~----------2-2~----|

Pre-Chorus
"But its been no bed of roses..."
5.
G|--------------------------------------------------------------------|
D|--------------------------------------------------------------------|
A|-5~------------5~------------5~--4~--2~------000000-0~--0~--0~--2~--|
E|-------3-3~----------3-3~----------------0~-------------------------|

Chorus
"We are the champions my friend..."
6.
G|------------------------------------------------------------|
D|------------------------------------------------------------|
A|-777777--------444444-0~--2~--------------------------------|
E|--------444444----------------000000-444444-5555-4-2-1~-----|

"We are the champions..."
7.
G|-----------------------------------------------------------------|
D|-----------------------------------------------------------------|
A|---------------000000-000000-777777-555555--------000000-2-2~----|
E|-222222-222222-----------------------------333333----------------|

"We are the champions my friend..."
8.
G|--------------------------------------------------------------|
D|--------------------------------------------------------------|
A|-777777--------444444-00~--22~--------------------------------|
E|--------444444------------------000000-444444-5555-4-2-1~-----|

"We are the champions..."
9.
G|---------------------------------------------------------|
D|---------------------------------------------------------|
A|---------------000000-000000-777777-555555--------000000-|
E|-222222-222222-----------------------------333333--------|

Outro
10.
G|-----------------------------------------------------------------------|
D|-----------------------------------------------------------------------|
A|-22222222-22222222-22222222-22222222/1414141414141414-1414141414141414-|
E|-----------------------------------------------------------------------|

11.
G|-------------------------|
D|-------------------------|
A|-2~----------------------|
E|-------------------------|


Please rate thank you!


Lyrics:

I've paid my dues 
Time after time 
I've done my sentence
But committed no crime 
And bad mistakes
I've made a few
I've had my share of sand kicked in my face 
But I've come through

We are the champions my friends
And we'll keep on fighting till the end 
We are the champions 
We are the champions
No time for losers
Cause we are the champions of the world 

I've taken my bows
And my curtain calls 
You brought me fame and fortune 
and everything that goes with it 
And Im at the fucking reading festival

But it's been no bed of roses
No pleasure cruise 
I consider it a challenge before the whole human race 
And I ain't gonna lose 



+++++++++++++++++++++++++++++++++
| RaiLeff                       |
| Underground__Dora@Hotmail.Com |
+++++++++++++++++++++++++++++++++
comments
We did not receive enough feedback on this tab! Please rate:
print report bad tab
1 2 3 4 5
I want to post or [tab]
guest
You may want to rate the tab now too:
select rating
Please do not post tabs as comments. Select "correction" instead!