Oops, an error
Loading. Please wait.

We Are The Champions Tab

version 1
version 1

Whole song

Interactive

37,132 views 6 this week
13 commentsread comments
1 2 3 4 5
accurate
x 26
add to favorites
launch autoscroll
font size
0
reset
how to read this tab
guitar tuner
Tab Pro tools
  • play this tab
  • loop segment
  • change instrument
  • show fretboard
  • metronome
×
Best way to learn
"We Are The Champions"
Autoscroll
slow
fast
+/-
esc
set tempo
stop
Contributor
Heres Green days live version of we are the champions.


VERSE 1
(I\'ve paid my dues)-No Guitar
(Time after time)-No Guitar
(I\'ve done my sentence)-No Guitar
(But committed no crime)-No Guitar

VERSE 2
(And bad mistakes)
E[--------------------------------------------------------]
B[---------------7-----------8----------------------------]
G[-----------------7---7---7---7---7---7------------------]
D[-------------------7---7-------7---7--------------------]
A[--------------------------------------------------------]
E[--------------------------------------------------------]

(I've made a few)
E[--------------------------------------------------------]
B[---------------7-----------8----------------------------]
G[-----------------7---7---7---7---7---7------------------]
D[-------------------7---7-------7---7--------------------]
A[--------------------------------------------------------]
E[--------------------------------------------------------]

(I've had my share of sand kicked in my face)
E[--------------------------------------------------------]
B[--------------------------------------------------------]
G[----------7~------------7~------------4~----------------]
D[----------7~------------7~------------4~----------------]
A[----------5~------------4~------------2~----------------]
E[--------------------------------------------------------]

(But I'll come through, And it keeps me going on and on and on and on
E[-------------------------------------------------------------------------]
B[-------------------------------------------------------------------------]
G[--------------------------------------------2-2-2-2-2-2-2-2-2-4~---------]
D[---2~---------------------------------------2-2-2-2-2-2-2-2-2-4~---------]
A[---2~---------------------------------------0-0-0-0-0-0-0-0-0-2~---------]
E[---0~--------------------------------------------------------------------]
				         ^       ^     ^   ^  
				         Accentuate these notes


   CHORUS
  (We are the champions, my friends)
E[--------------------------------------------------------]
B[--------------------------------------------------------]
G[--------------------------6~------2~-4~-----------------]
D[-2~---------6~------------6~------2~-4~-----------------]
A[-2~---------6~------------4~------0~-2~-----------------]
E[-0~---------4~------------------------------------------]


(And we'll keep on fighting till' the end)
E[--------------------------------------------------------]
B[--------------------------------------------------------]
G[------------------------------------2~------------------]
D[---2~------------6~-----------------2~---6~-4~-2~-4~----]
A[---2~------------6~-----------------0~---6~-4~-2~-4~----]
E[---0~------------4~----------------------4~-2~-0~-2~----]


  (We are the champions, We are the champions)
E[--------------------------------------------------------]
B[--------------------------------------------------------]
G[-----------------------2~-2~--2~--4~---6~---------------]
D[-4~-4~--4~--4~---------2~-2~--2~--4~---6~---------------]
A[-4~-4~--4~--4~---------0~-0~--0~--2~---4~---------------]
E[-2~-2~--2~--2~------------------------------------------]

  (No time for losers, but we are the champions)
E[--------------------------------------------------------------]
B[--------------------------------------------------------------]
G[--------------------------------------------------------------]
D[-2~----------4~----------5~---------7~-------9~-9~------------]
A[-2~----------4~----------5~---------7~-------9~-9~------------]
E[-0~----------2~----------3~---------5~-------7~-7~------------]
 
  (Of the world)
E[-----------------------------------]
B[-----------------------------------]
G[-----------------------------------]
D[---------------2~------------------]
A[---------------2~------------------]
E[---------------0~------------------]

PIANO INTERLUDE

VERSE 3
(I've taken my bows)-No Guitar
(My curtain calls)-No Guitar
(You've brought me fame and fortune and everything that goes with it)-No Guitar
(And I'm Rick James, Bitch)-No Guitar **Yes He Does Say This**

Verse 4
(But it's been no bed of roses)
E[----------------------------------------------------------------]
B[-----------------------7-----------8----------------------------]
G[-------------------------7---7---7---7---7---7------------------]
D[---------------------------7---7-------7---7--------------------]
A[----------------------------------------------------------------]
E[----------------------------------------------------------------]

(No pleasure cruise)
E[----------------------------------------------------]
B[-----------7-----------8----------------------------]
G[-------------7---7---7---7---7---7------------------]
D[---------------7---7-------7---7--------------------]
A[----------------------------------------------------]
E[----------------------------------------------------]

(I consider it a challenge before all human race)
E[--------------------------------------------------------]
B[--------------------------------------------------------]
G[---------------7~------------7~------------4~-----------]
D[---------------7~------------7~------------4~-----------]
A[---------------5~------------4~------------2~-----------]
E[--------------------------------------------------------]

(That I'll NEVER lose, and it keeps me going on and on and on and on)
E[-------------------------------------------------------------------------]
B[-------------------------------------------------------------------------]
G[--------------------------------------------2-2-2-2-2-2-2-2-2-4~---------]
D[---------------2~---------------------------2-2-2-2-2-2-2-2-2-4~---------]
A[---------------2~---------------------------0-0-0-0-0-0-0-0-0-2~---------]
E[---------------0~--------------------------------------------------------]

				         ^       ^     ^   ^  
				         Accentuate these notes


   CHORUS
  (We are the champions, my friends)
E[--------------------------------------------------------]
B[--------------------------------------------------------]
G[--------------------------6~------2~-4~-----------------]
D[-2~---------6~------------6~------2~-4~-----------------]
A[-2~---------6~------------4~------0~-2~-----------------]
E[-0~---------4~------------------------------------------]


(And we'll keep on fighting till' the end)
E[--------------------------------------------------------]
B[--------------------------------------------------------]
G[------------------------------------2~------------------]
D[---2~------------6~-----------------2~---6~-4~-2~-4~----]
A[---2~------------6~-----------------0~---6~-4~-2~-4~----]
E[---0~------------4~----------------------4~-2~-0~-2~----]


  (We are the champions, We are the champions)
E[--------------------------------------------------------]
B[--------------------------------------------------------]
G[-----------------------2~-2~--2~--4~---6~---------------]
D[-4~-4~--4~--4~---------2~-2~--2~--4~---6~---------------]
A[-4~-4~--4~--4~---------0~-0~--0~--2~---4~---------------]
E[-2~-2~--2~--2~------------------------------------------]

  (No time for losers, but we are the champions)
E[--------------------------------------------------------------]
B[--------------------------------------------------------------]
G[--------------------------------------------------------------]
D[-2~----------4~----------5~---------7~-------9~-9~------------]
A[-2~----------4~----------5~---------7~-------9~-9~------------]
E[-0~----------2~----------3~---------5~-------7~-7~------------]
 
  (Of the world)
E[-----------------------------------]
B[-----------------------------------]
G[-----------------------------------]
D[---------------2~------------------]
A[---------------2~------------------]
E[---------------0~------------------]


   CHORUS
  (We are the champions, my friends)
E[--------------------------------------------------------]
B[--------------------------------------------------------]
G[--------------------------6~------2~-4~-----------------]
D[-2~---------6~------------6~------2~-4~-----------------]
A[-2~---------6~------------4~------0~-2~-----------------]
E[-0~---------4~------------------------------------------]


(And we'll keep on fighting till' the end)
E[--------------------------------------------------------]
B[--------------------------------------------------------]
G[------------------------------------2~------------------]
D[---2~------------6~-----------------2~---6~-4~-2~-4~----]
A[---2~------------6~-----------------0~---6~-4~-2~-4~----]
E[---0~------------4~----------------------4~-2~-0~-2~----]


  (We are the champions, We are the champions)
E[--------------------------------------------------------]
B[--------------------------------------------------------]
G[-----------------------2~-2~--2~--4~---6~---------------]
D[-4~-4~--4~--4~---------2~-2~--2~--4~---6~---------------]
A[-4~-4~--4~--4~---------0~-0~--0~--2~---4~---------------]
E[-2~-2~--2~--2~------------------------------------------]

  (No time for losers, but we are the champions...)
E[--------------------------------------------------------------]
B[--------------------------------------------------------------]
G[--------------------------------------------------------------]
D[-2~----------4~----------5~---------7~-------9~-9~------------]
A[-2~----------4~----------5~---------7~-------9~-9~------------]
E[-0~----------2~----------3~---------5~-------7~-7~------------] END

Solos for the second guitar (Jason White):
|--------------------------------||----------------------------------------|
|-b11-b11-b11-b13-r11-8----------||----------------------------------------|
|-----------------------9--------||-17b19-b19-14--17b19--------------------|
|-------------------------10-----||---------------------b19-17-15----------|
|----------------------------8---||-------------------------------17-15---|
|--------------------------------||----------------------------------------|

|---------------------------------------|
|---------------------------------------|
|----------------------12-14-15-/17-----|
|-12---h13r12p10h12---------------------|
|-----------------------------------15--|
|---------------------------------------|

|--------------------------------------------------------------------------|
|--------------------------------------------------------------------------|
|-15---17---18-17---15-5---10-------10--------10---------10-----10-10------|
|----------------------------8/10---------/10-------/10-10------10---------|
|--------------------------------------------------------------------------|
|--------------------------------------------------------------------------|


|------------------------------------------|
|-13b15---b15--b15---13b15--r13p11-10------|
|-------------------------------------12---|
|------------------------------------------|
|------------------------------------------|
|------------------------------------------|

|------17b18-17-18-15b17--b17r15p13--15b17--b17r15p13--15b17--b17r15p13--|
|-8/15-------------------------------------------------------------------|
|------------------------------------------------------------------------|
|------------------------------------------------------------------------|
|------------------------------------------------------------------------|
|------------------------------------------------------------------------|

|-15b16--b16r15p13--20b22--20-18-17-----------------|
|-----------------------------------20-18-20--------|
|-------------------------------------------19-17---|
|---------------------------------------------------|
|---------------------------------------------------|
|---------------------------------------------------|
comments
print report bad tab
13 comments total. Showing first comments. show 1 bad comment
0 reply
sum41guitarist wrote on July 27 2005, 12:00 am

nice

0 reply
omega_storm wrote on August 29 2005, 12:00 am

haha yea..the touring guitarists are great

I want to post or [tab]
guest
You may want to rate the tab now too:
select rating
Please do not post tabs as comments. Select "correction" instead!