Oops, an error
Loading. Please wait.
We have an official Welcome To Paradise tab made by UG professional guitarists. Check out the tab »
×

Welcome To Paradise tab

20,283 views 18 this week
10 commentsread comments
1 2 3 4 5
x 15
add to favorites
×
Save as Personal and add changes to this tab that will be seen only by you. Learn more ›
×
You can save this tab as Personal to edit and correct it or add notes. All changes will be seen only by you. Learn more »
launch autoscroll
font size
0
reset
how to read this tab
guitar tuner
backing track
0:00
0:00
edit
Autoscroll
slow
fast
+/-
esc
set tempo
stop
Author
Tabbers playing skills
intermediate ++
                               WELCOME TO PARADISE
                            As recorded by Green Day
                          (From the 1994 Album DOOKIE)

Words by Billie Joe

Music by Green Day
Transcribed by Donkey Fly (Thedonkeyfly@hotmail.com)
I Did This On Paper First Then On Power Tab Editor To Check It Was Right 
And To Get Tempo For You.

Guitars Tuned Half A Step Down So - Eb, Bb, Gb, Db, Ab, Eb

 Intro

  Q=192
  E5          N.C.  D5  N.C.A5        N.C.
 4/4
  Gtrs I, II
|-----------------|-----------------------|
|-------------(0)-|-----(0)-----------(0)-|
|-9--x-9-9--9--0--|-7-7--0-------------0--|
|-9--x-9-9--9--0--|-7-7--0--7-(7)-7-7--0--|
|-7--x-7-7--7--0--|-5-5--0--7-(7)-7-7--0--|
|-----------------|---------5-(5)-5-5-----|


  E5          N.C.  D5  N.C.A5        N.C.
|-----------------|-----------------------|
|-------------(0)-|-----(0)-----------(0)-|
|-9--x-9-9--9--0--|-7-7--0-------------0--|
|-9--x-9-9--9--0--|-7-7--0--7-(7)-7-7--0--|
|-7--x-7-7--7--0--|-5-5--0--7-(7)-7-7--0--|
|-----------------|---------5-(5)-5-5-----|


    E5              N.CD5  N.C.A5        N.C.
   4/4
||-------------------|-----------------------|
||o-------------(0)--|-----(0)-----------(0)-|
||--9--x-9-9--9--0---|-7-7--0-------------0--|
||--9--x-9-9--9--0---|-7-7--0--7-(7)-7-7--0--|
||o-7--x-7-7--7--0---|-5-5--0--7-(7)-7-7--0--|
||-------------------|---------5-(5)-5-5-----|


  E5              N.CD5  N.C.A5        N.C.
|------------------|-------------------------||
|-------------(0)--|-----(0)-----------(0)---||
|-9--x-9-9--9--0---|-7-7--0-------------0----||
|-9--x-9-9--9--0---|-7-7--0--7-(7)-7-7--0----||
|-7--x-7-7--7--0---|-5-5--0--7-(7)-7-7--0----||
|------------------|---------5-(5)-5-5-------||


 Verse
  $
  E5          D5                      N.C.  E5
|---------------|-------------------------|---------------|--------------|
|---------------|---------------------(0)-|---------------|--------------|
|-9--9--9-9-x-7-|-(7)-7-(7)-7-(7)-7-7--0--|-9--x-9-9--x-9-|--9--9-9--9-9-|
|-9--9--9-9-x-7-|-(7)-7-(7)-7-(7)-7-7--0--|-9--x-9-9--x-9-|--9--9-9--9-9-|
|-7--7--7-7-x-5-|-(5)-5-(5)-5-(5)-5-5--0--|-7--x-7-7--x-7-|--7--7-7--7-7-|
|---------------|-------------------------|---------------|--------------|


              D5                    N.C.  G5      A5    B5
|---------------|-----------------------|-----------------|-------------------|
|---------------|-------------------(0)-|-----------------|-------------------|
|-9--9--9-9-x-7-|-(7)-7-7-7-(7)-7-7--0--|---------2-(2)-4-|-(4)-4-4-4-4-4-4-4-|
|-9--9--9-9-x-7-|-(7)-7-7-7-(7)-7-7--0--|-5--5--5-2-(2)-4-|-(4)-4-4-4-4-4-4-4-|
|-7--7--7-7-x-5-|-(5)-5-5-5-(5)-5-5--0--|-5--5--5-0-(0)-2-|-(2)-2-2-2-2-2-2-2-|
|---------------|-----------------------|-3--3--3---------|-------------------|


  E5          D5                      N.C.  E5
|---------------|-------------------------|---------------|-------------|
|---------------|---------------------(0)-|---------------|-------------|
|-9--9--9-9-x-7-|-(7)-7-(7)-7-(7)-7-7--0--|-9--x-9-9--x-9-|--9--9-9--9--|
|-9--9--9-9-x-7-|-(7)-7-(7)-7-(7)-7-7--0--|-9--x-9-9--x-9-|--9--9-9--9--|
|-7--7--7-7-x-5-|-(5)-5-(5)-5-(5)-5-5--0--|-7--x-7-7--x-7-|--7--7-7--7--|
|---------------|-------------------------|---------------|-------------|


              D5                    N.C.  G5      A5    B5
|---------------|-----------------------|-----------------|-------------------|
|---------------|-------------------(0)-|-----------------|-------------------|
|-9--9--9-9-x-7-|-(7)-7-7-7-(7)-7-7--0--|---------2-(2)-4-|-(4)-4-4-4-4-4-4-4-|
|-9--9--9-9-x-7-|-(7)-7-7-7-(7)-7-7--0--|-5--5--5-2-(2)-4-|-(4)-4-4-4-4-4-4-4-|
|-7--7--7-7-x-5-|-(5)-5-5-5-(5)-5-5--0--|-5--5--5-0-(0)-2-|-(2)-2-2-2-2-2-2-2-|
|---------------|-----------------------|-3--3--3---------|-------------------|


  G5      A5    B5
|-----------------|-------------------|-----------------||
|-----------------|-------------------|-----------------||
|---------2-(2)-4-|-(4)-4-4-4-4-4-4-4-|-4-4-4-4-4-4-4-4-||
|-5--5--5-2-(2)-4-|-(4)-4-4-4-4-4-4-4-|-4-4-4-4-4-4-4-4-||
|-5--5--5-0-(0)-2-|-(2)-2-2-2-2-2-2-2-|-2-2-2-2-2-2-2-2-||
|-3--3--3---------|-------------------|-----------------||


 Chorus
  E5        N.C.G5                     A5        N.C.C5
|-----------------|------------------|-----------------|-------------------|
|-----------(0)---|------------------|-----------(0)---|-------------------|
|------------0----|------------------|-2--2--2-2--0--5-|-(5)-5-5-5-5-5-5-5-|
|-2--2--2-2--0--5-|-(5)-5-5--5-5-5-5-|-2--2--2-2--0--5-|-(5)-5-5-5-5-5-5-5-|
|-2--2--2-2--0--5-|-(5)-5-5--5-5-5-5-|-0--0--0-0--0--3-|-(3)-3-3-3-3-3-3-3-|
|-0--0--0-0--0--3-|-(3)-3-3--3-3-3-3-|-----------------|-------------------|


  E5        N.C.G5                     B5
|-----------------|------------------|---------------|-------------------|
|-----------(0)---|------------------|---------------|-------------------|
|------------0----|------------------|-4--4--4-4-4-4-|-(4)-4-4-4-4-4-4-4-|
|-2--2--2-2--0--5-|-(5)-5-5--5-5-5-5-|-4--4--4-4-4-4-|-(4)-4-4-4-4-4-4-4-|
|-2--2--2-2--0--5-|-(5)-5-5--5-5-5-5-|-2--2--2-2-2-2-|-(2)-2-2-2-2-2-2-2-|
|-0--0--0-0--0--3-|-(3)-3-3--3-3-3-3-|---------------|-------------------|


  E5        N.C.G5                     A5        N.C.C5
|-----------------|------------------|-----------------|-------------------|
|-----------(0)---|------------------|-----------(0)---|-------------------|
|------------0----|------------------|-2--2--2-2--0--5-|-(5)-5-5-5-5-5-5-5-|
|-2--2--2-2--0--5-|-(5)-5-5--5-5-5-5-|-2--2--2-2--0--5-|-(5)-5-5-5-5-5-5-5-|
|-2--2--2-2--0--5-|-(5)-5-5--5-5-5-5-|-0--0--0-0--0--3-|-(3)-3-3-3-3-3-3-3-|
|-0--0--0-0--0--3-|-(3)-3-3--3-3-3-3-|-----------------|-------------------|


                                 Interlude
                    To Coda
  E5                 B5           E5          N.C.  D5  N.C.A5        N.C.
|------------------|-----------||-----------------|-----------------------|
|------------------|----------o||-------------(0)-|-----(0)-----------(0)-|
|------------------|-4---------||-9--x-9-9--9--0--|-7-7--0-------------0--|
|-2--2-2-(2)-2-2-2-|-4---------||-9--x-9-9--9--0--|-7-7--0--7-(7)-7-7--0--|
|-2--2-2-(2)-2-2-2-|-2--------o||-7--x-7-7--7--0--|-5-5--0--7-(7)-7-7--0--|
|-0--0-0-(0)-0-0-0-|-----------||-----------------|---------5-(5)-5-5-----|


    E5          N.C.  D5  N.C.A5        N.C.
||------------------|------------------------||
||o-------------(0)-|-----(0)-----------(0)-o||
||--9--x-9-9--9--0--|-7-7--0-------------0---||
||--9--x-9-9--9--0--|-7-7--0--7-(7)-7-7--0---||
||o-7--x-7-7--7--0--|-5-5--0--7-(7)-7-7--0--o||
||------------------|---------5-(5)-5-5------||


  E5          N.C.  D5  N.C.A5    N.C.
|-----------------|-----------------------||
|-------------(0)-|-----(0)---------------||
|-9--x-9-9--9--0--|-7-7--0----------------||
|-9--x-9-9--9--0--|-7-7--0--7-(7)---------||
|-7--x-7-7--7--0--|-5-5--0--7-(7)---------||
|-----------------|---------5-(5)-5S12\---||


  Em
|-0--------|-(0)--------|-(0)--------|-(0)----|
|-0--------|-(0)--------|-(0)--------|-(0)----|
|-0--------|-(0)--------|-(0)--------|-(0)----|
|-2--------|-(2)--------|-(2)--------|-(2)----|
|-2--------|-(2)--------|-(2)--------|-(2)----|
|-0--------|-(0)--------|-(0)--------|-(0)----|


|-(0)--------|-(0)--------|-(0)--------|-(0)------------|
|-(0)--------|-(0)--------|-(0)--------|-(0)------------|
|-(0)--------|-(0)--------|-(0)--------|-(0)------------|
|-(2)--------|-(2)--------|-(2)--------|-(2)------------|
|-(2)--------|-(2)--------|-(2)--------|-(2)-------(2)S=|
|-(0)--------|-(0)--------|-(0)--------|-(0)------------|


  N.C.
  Gtr II
|----------|---------------|--------------|-------------------------|
|----------|---------------|--------------|-------------------------|
|----------|---------------|--------------|-------------------------|
|----------|---------------|--------------|-------------------------|
|-7--------|-(7)-------(7)s|=2------(2)s3-|-(3)s2-(2)p0-(0)h2-(2)s3-|
|----------|---------------|--------------|-------------------------|


|----------------|-------------------|
|----------------|-------------------|
|----------------|-------------------|
|----------------|-------------------|
|-(3)s2-(2)------|-(2)---------------|
|----------------|-------------------|
|
| Gtr I
|                        ~~~~~~~
|----------------|-------------------|
|----------------|-------------------|
|----------------|-------------------|
|----------------|-------------------|
|----------------|-----/12-(12)------|
|----------------|-------------------|


|-----------------|-------------------------||
|-----------------|-------------------------||
|-----------------|-------------------------||
|-----------------|-------------------------||
|-(2)------(2)s10-|-(10)s9-(9)S8-(8)s7-(7)--||
|-----------------|-------------------------||
|
|-----------------|-------------------------||
|-----------------|-------------------------||
|-----------------|-------------------------||
|-----------------|-------------------------||
|-----------------|-------------------------||
|-----------------|-------------------------||


  Gtr I
  PM---------------------------------------
|--------------------|--------------------|
|-----9p0-------12p0-|------11p0-----10p0-|
|--------------------|--------------------|
|--------------------|--------------------|
|-7-7-----10-10------|--9-9------8-8------|
|--------------------|--------------------|
|
| Gtr II
|                       <
|                       ~~~~~~~~~~~~~~~~~~~
|--------------------|--------------------|
|--------------------|--------------------|
|--------------------|-14-----------------|
|--------------------|--------------------|
|--------------------|--------------------|
|--------------------|--------------------|
|
| Gtr III
|--------------------|--------------------|
|--------------------|--------------------|
|--------------------|--------------------|
|--------------------|--------------------|
|--------------------|--------------------|
|--------------------|--------------------|


 --------------------------------------------|
|-----------------------|-------------------------|
|--------9p0-------12p0-|--------11p0-----10p==0--|
|-----------------------|-------------------------|
|-----------------------|-------------------------|
|---7--7-----10-10------|---9--9------8-8---------|
|-----------------------|-------------------------|
|
|~~~~~~~~~~~~~~~~~~~~~~~~~~~~~~
|-----------------------|-------------------------|
|-----------------------|-------------------------|
|-(14)------------------|-(14)--------------------|
|-----------------------|-------------------------|
|-----------------------|-------------------------|
|-----------------------|-------------------------|
|
|-----------------------|-------------------------|
|-----------------------|--------------------<12>-|
|-----------------------|-------------------------|
|-----------------------|-------------------------|
|-----------------------|-------------------------|
|-----------------------|-------------------------|


    PM----------------------------------------------------------
|--------------------------------------|-----------------------|
|---------9p===0--------------12p===0--|---------11p0-----10p0-|
|--------------------------------------|-----------------------|
|--------------------------------------|-----------------------|
|---7--7------------10---10------------|---9---9------8-8------|
|--------------------------------------|-----------------------|
|
|   ~~~~~~~~~~~~~~~~~~~~~~~~~~~~~~~~~~~~~~~~~~~~~~~~~~~~~~~~~~~~
|--------------------------------------|-----------------------|
|--------------------------------------|-----------------------|
|-(14)---------------------------------|-(14)------------------|
|--------------------------------------|-----------------------|
|--------------------------------------|-----------------------|
|--------------------------------------|-----------------------|
|
|-<12>-----------------------------<5>-|-(<5>)-----------------|
|------------(<5>)-(<5>)---------------|-----------------------|
|--------<5>-------------<4>-(<4>)-----|-----------------------|
|--------------------------------------|-----------------------|
|--------------------------------------|-----------------------|
|--------------------------------------|-----------------------|


 ----------------------------------------------------------|
|-----------------------|------------------------------------||
|--------9p0-------12p0-|----------------11p=0---------10p=0-||
|-----------------------|------------------------------------||
|-----------------------|------------------------------------||
|---7--7-----10-10------|---9--------9-----------8--8--------||
|-----------------------|------------------------------------||
|
|~~~~~~~~~~~~~~~~~~~~~~~~~~~~~~~~~~
|-----------------------|------------------------------------||
|-----------------------|------------------------------------||
|-(14)------------------|-(14)b16==(14)-(14)---(14)r==(14)---||
|-----------------------|------------------------------------||
|-----------------------|------------------------------------||
|-----------------------|------------------------------------||
|
|-----------------------|------------------------------------||
|-----------------------|------------------------------------||
|-----------------------|------------------------------------||
|-----------------------|------------------------------------||
|-----------------------|------------------------------------||
|-----------------------|------------------------------------||


    Gtrs I, II
    PM|      PM|         PM|      PM|
                                            4x
||---------------------|--------------------||
||o-----9p0-------12p0-|-----11p0-----10p0-o||
||---------------------|--------------------||
||---------------------|--------------------||
||o-7-7-----10-10------|-9-9------8-8------o||
||---------------------|--------------------||


|-||---------------------|--------------------||
|-||o-----9p0-------12p0-|-----11p0-----10p0-o||
|-||---------------------|--------------------||
|-||---------------------|--------------------||
|-||o-7-7-----10-10------|-9-9------8-8------o||
|-||---------------------|--------------------||


|--------------------|-------------------|
|-----9p0-------12p0-|-----11p0-----10p0-|
|--------------------|-------------------|
|--------------------|-------------------|
|-7-7-----10-10------|-9-9------8-8------|
|--------------------|-------------------|


                           D.S. al Coda
|--------------------|-------------------||
|-----9p0-------12p0-|-----11p0-----10p0-||
|--------------------|-------------------||
|--------------------|-------------------||
|-7-7-----10-10------|-9-9------8-8------||
|--------------------|-------------------||


   Outro
    Q=192
    &
    E5          N.C.  D5  N.C.A5        N.C.
   4/4
    Gtrs I, II
                                             4x
||------------------|------------------------||-----------*|
||o-------------(0)-|-----(0)-----------(0)-o||-----------*|
||--9--x-9-9--9--0--|-7-7--0-------------0---||-9\--------*|
||--9--x-9-9--9--0--|-7-7--0--7-(7)-7-7--0---||-9\--------*|
||o-7--x-7-7--7--0--|-5-5--0--7-(7)-7-7--0--o||-7\--------*|
||------------------|---------5-(5)-5-5------||-----------*|

            
            
Suggest correction
Creating personal tab
Creating personal tab
You can edit any tab online and save it as your Personal.

You can edit, replace or remove any tab part or add personal notes – all changes will be seen only by you.

Personal tabs can be accessed anytime from any device, even offline.
Learn more »
comments
print report bad tab
10 comments total. Showing first comments.
0 reply
jjrawson 20 Jul 31, 2005 08:00 PM

Get a life

0 reply
Donkey Fly 2,636 Aug 30, 2005 08:00 PM

Why Dont You , You Ignorant Little ***

0 reply
pmc_funkbass 10 May 01, 2006 06:38 AM

does anyone besides me realize that this song is just blitzkrieg bop backwards? its like im living in crazy land!

guest
You may want to rate the tab now too:
select rating
Wanna post a correction for this tab? Suggest correction