Oops, an error
Loading. Please wait.

Welcome To Paradise Bass Tab

version 4
version 4

Whole song

Interactive

49,965 views 132 this week
8 commentsread comments
1 2 3 4 5
accurate
x 13
add to favorites
launch autoscroll
font size
0
reset
guitar tuner
Tab Pro tools
  • play this tab
  • loop segment
  • change instrument
  • show fretboard
  • metronome
×
Best way to learn
"Welcome To Paradise"
Autoscroll
slow
fast
+/-
esc
set tempo
stop
Contributor
Green Day - Welcome To Paradise
Album: Dookie
Standard Tuning: eadg
Tabbed By: Ben Pauley - benpauley@aol.com


Intro: (after guitar part)

G|----------------------------------------|
D|-------------6------------------6-------|
A|-4s6666-66-4--------4s6666-66-4---------|
E|---------------4-444--------------4-444-|


Verse 1:

G|-------------------------------------------------------------------|
D|-------------------------------------4s3------3434-----------------|
A|-6-6-66-4-44-44446--66--6-6-66---6-6-----4-44----------------------|
E|--------------------------------------------------2-2224-6-6666666-|

G|-------------------------------------------------------------------|
D|-----4s3------3434--------------------4s3------3434----------------|
A|-6-6----4-44-----6--66--6-6-66---6-6-----4-44----------------------|
E|--------------------------------------------------2-2224-6-6666666-|

G|--------------------------|
D|--------------------------|
A|--------11111111111111111-|
E|-2-2224-------------------|


Chorus:

G|-------------------------------------------------------------------|
D|-1-1-1s4--------------------------1-1-1s4-------------------3--343-|
A|------------------------2-2222h42-----------------1-1-1111-1--4----|
E|--------2-22222224-4-444-----------------2-2222222-----------------|

G|--------------------------------------------|
D|-1-1-1s4--------------------------1-11-111--|
A|------------------------2-2222h42---------1-|
E|--------2-22222224-4-444--------------------|

Intro Again:

G|----------------------------------------|
D|-------------6------------------6-------|
A|-4s6666-66-4--------4s6666-66-4---------|
E|---------------4-444--------------4-444-|

Verse 2:

G|-------------------------------------------------------------------|
D|-------------------------------------4s3------3434-----------------|
A|-6-6-66-4-44-44446--66--6-6-66---6-6-----4-44----------------------|
E|--------------------------------------------------2-2224-6-6666666-|

G|---------------------------------------------------------------------|
D|-----4s3------3434--------------------4s3------3434------------------|
A|-6-6----4-44-----6--66--6-6-66---6-6-----4-44------------------------|
E|----------------------------------------------------2-2224-6-6666666-|

G|--------------------------|
D|--------------------------|
A|--------11111111111111111-|
E|-2-2224-------------------|

Chorus:

G|-------------------------------------------------------------------|
D|-1-1-1s4--------------------------1-1-1s4-------------------3--343-|
A|------------------------2-2222h42-----------------1-1-1111-1--4----|
E|--------2-22222224-4-444-----------------2-2222222-----------------|

G|--------------------------------------------|
D|-1-1-1s4--------------------------1-11-111--|
A|------------------------2-2222h42---------1-|
E|--------2-22222224-4-444--------------------|

Intro Again:

G|----------------------------------------|
D|-------------6------------------6-------|
A|-4s6666-66-4--------4s6666-66-4---------|     X2
E|---------------4-444--------------4-444-|


Interlude:

G|---------------------------------|
D|-----6s8-----8-------7-------6s8-|
A|-6-6----h9-9--h9s8-8--h8s7-7-----|     Play this 20 times
E|---------------------------------|


Verse 3:

G|--------------------------------------------------------------------|
D|-------------------------------------4s3------3434------------------|
A|-6-6-66-4-44-44446--66--6-6-66---6-6-----4-44-----------------------|
E|--------------------------------------------------2-2224-6-6666666--|

G|-------------------------------------------------------------------|
D|-----4s3------3434--------------------4s3------3434----------------|
A|-6-6----4-44-----6--66--6-6-66---6-6-----4-44----------------------|
E|--------------------------------------------------2-2224-6-6666666-|

G|--------------------------|
D|--------------------------|
A|--------11111111111111111-|
E|-2-2224-------------------|


Chorus:

G|-------------------------------------------------------------------|
D|-1-1-1s4--------------------------1-1-1s4-------------------3--343-|
A|------------------------2-2222h42-----------------1-1-1111-1--4----|
E|--------2-22222224-4-444-----------------2-2222222-----------------|

G|--------------------------------------------|
D|-1-1-1s4--------------------------1-11-111--|
A|------------------------2-2222h42---------1-|
E|--------2-22222224-4-444--------------------|


Ending:

G|----------------------------6h86-6-------------------------------------|
D|-------------6------------------8-h876s4------------6------------------|
A|-4s6666-66-4--------4s6666--------------4s6666-66-4--------4s6666-66-4-|
E|---------------4-444----------------------------------4-444------------|

G|----------|
D|-6--------|
A|--------6-|
E|---4-444--|
comments
print report bad tab
8 comments total. Showing first comments.
0 reply
LD1992 wrote on June 19 2006, 03:26 pm

Hey mate the whole 'dookie' album was recorded on flat notes.

-2 reply
Gordon123 wrote on July 23 2006, 10:02 am

this is pretty wrong btw, its all the same as the guitar apart from bass solo

+1 reply
benp2009 wrote on October 9 2006, 03:47 pm

Actually, it's nothing like the guitar part.

I want to post or [tab]
guest
You may want to rate the tab now too:
select rating
Please do not post tabs as comments. Select "correction" instead!