Oops, an error
Loading. Please wait.

Welcome To Paradise Bass Tab

version 5
version 5

Whole song

Interactive

6,617 views 6 this week
1 commentread comment
1 2 3 4 5
accurate
x 5
add to favorites
launch autoscroll
font size
0
reset
guitar tuner
Autoscroll
slow
fast
+/-
esc
set tempo
stop
Help us to improve Ultimate-Guitar.com Take our survey!
×
Contributor
Difficulty
intermediate
Intro: (after guitar part)
=Intro Riff= 

G|-----------------------------|
D|----------------7------------|
A|---5\7--77777-5--------------|
E|-----------------4--444------| x2

Verse 1:

G|---------------------------------------------|
D|---------------------------------------------|
A|----66-6666--4-44-44---6—-6-66-6---6--6-66-6-|
E|---------------------------------------------|

=Verse Riff=
G|---------------------------|
D|-------43-----3h4p---------|
A|--66------444--------------|
E|-------------------222/4h6-|

G|--------------------------------|
D|-------43-----3h4p--------------|
A|--66------444------6-66-6666----|	 
E|--------------------------------|

=Pre Chorus=
G|--------------------------------------------|
D|-------43-----3h4p--------------------------|
A|--66------444-------------------------------|
E|-------------------222/4h6-222/4h6-66666666-|


Chorus:

G|-------------------------------------------------------------------|
D|-------------------------------------------------------------------|
A|-6---66--------------------2222---666666---------------------------|
E|----------22-22----44-444------------------222/4h6-----------------| x2

=Intro Riff=
G|-----------------------------|
D|----------------7------------|
A|---5\7--77777-5--------------|
E|-----------------4--444------| x2

=Verse 2=
G|---------------------------------------------|
D|---------------------------------------------|
A|----66-6666--4-44-44---6—-6-66-6---6--6-66-6-|
E|---------------------------------------------|

=Verse Riff=
G|---------------------------|
D|-------43-----3h4p---------|
A|--66------444--------------|
E|-------------------222/4h6-|

G|--------------------------------|
D|-------43-----3h4p--------------|
A|--66------444------6-66-6666----|	 
E|--------------------------------|

=Pre Chorus=
G|--------------------------------------------|
D|-------43-----3h4p--------------------------|
A|--66------444-------------------------------|
E|-------------------222/4h6-222/4h6-66666666-|
Chorus:

G|-------------------------------------------------------------------|
D|-------------------------------------------------------------------|
A|-6---66--------------------2222---666666---------------------------|
E|----------22-22----44-444------------------222/4h6-----------------| x2

=Intro Riff= 

G|-----------------------------|
D|----------------7------------|
A|---5\7--77777-5--------------|
E|-----------------4--444------| x4

=!!BASS SOLO!!=
G|--------------------------------------------|
D|-----8------8------7------6-----------------|    
A|-66----8/99---9-88---8-77---7---------------|                             
E|--------------------------------------------|x20

Verse 1:

G|---------------------------------------------|
D|---------------------------------------------|
A|----66-6666--4-44-44---6—-6-66-6---6--6-66-6-|
E|---------------------------------------------|

=Verse Riff=
G|---------------------------|
D|-------43-----3h4p---------|
A|--66------444--------------|
E|-------------------222/4h6-|

G|--------------------------------|
D|-------43-----3h4p--------------|
A|--66------444------6-66-6666----|	 
E|--------------------------------|

=Pre Chorus=
G|--------------------------------------------|
D|-------43-----3h4p--------------------------|
A|--66------444-------------------------------|
E|-------------------222/4h6-222/4h6-66666666-|


Chorus:

G|-------------------------------------------------------------------|
D|-------------------------------------------------------------------|
A|-6---66--------------------2222---666666---------------------------|
E|----------22-22----44-444------------------222/4h6-----------------|

=Intro Riff=
G|-----------------------------|
D|----------------7------------|
A|---5\7--77777-5--------------|
E|-----------------4--444------| x4
comments
print report bad tab
1 comment total.
0 reply
discowboy4rmhel 11 wrote on May 16 2015, 12:18 am

didn't like this contribution

I want to post or [tab]
guest
You may want to rate the tab now too:
select rating
Please do not post tabs as comments. Select "correction" instead!