Oops, an error
Loading. Please wait.

Welcome To Paradise Tab

version 6
version 6
974 views 3 this week
no commentswrite comment
1 2 3 4 5
accurate
x 2
add to favorites
launch autoscroll
font size
0
reset
how to read this tab
guitar tuner
Tab Pro tools
  • play this tab
  • loop segment
  • change instrument
  • show fretboard
  • metronome
×
Best way to learn
"Welcome To Paradise"
Autoscroll
slow
fast
+/-
esc
set tempo
stop
Contributor
Difficulty
Tuning
novice
D# G# C# F# A# D#
This is one of my all-time favorite songs. No one seemed to have the tab right so I 
thought I'd help you out. I wrote it out with nearly the exact strumming patterns that I 
follow. The strum patterns may not be 100% accurate but it sounds good as the 
notes are 100% correct.


Intro: Play 4x

e|-------------------------------------------|
B|-------------------------------------------|
G|-----9--X-9-9--9-9--7-7--------------------|
D|-----9--X-9-9--9-9--7-7---7--7-7-7---------|
A|-----7--X-7-7--7-7--5-5---7--7-7-7---------|
E|--------------------------5--5-5-5---------|

Verse: Play 1X

e|-------------------------------------------------------------|
B|-------------------------------------------------------------|
G|-----9--9--9-9-9--7--7-7--7--7-7-7-9--X-9-9--X-9--9--9-9-----|
D|-----9--9--9-9-9--7--7-7--7--7-7-7-9--X-9-9--X-9--9--9-9-----|
A|-----7--7--7-7-7--5--5-5--5--5-5-5-7--X-7-7--X-7--7--7-7-----|
E|-------------------------------------------------------------|

e|-----------------------------------------------------------------------|
B|-----------------------------------------------------------------------|
G|-----9--9--9-9-9--7--7-7--7--7-7-7-------------------------------------|
D|-----9--9--9-9-9--7--7-7--7--7-7-7--5--5--5-5---9--9-9-9-9-9-9-9-------|
A|-----7--7--7-7-7--5--5-5--5--5-5-5--5--5--5-5---9--9-9-9-9-9-9-9-------|
E|------------------------------------3--3--3-3---7--7-7-7-7-7-7-7-------|

e|-------------------------------------------------------------|
B|-------------------------------------------------------------|
G|-----9--9--9-9-9--7--7-7--7--7-7-7-9--X-9-9--X-9--9--9-9-----|
D|-----9--9--9-9-9--7--7-7--7--7-7-7-9--X-9-9--X-9--9--9-9-----|
A|-----7--7--7-7-7--5--5-5--5--5-5-5-7--X-7-7--X-7--7--7-7-----|
E|-------------------------------------------------------------|

e|-----------------------------------------------------------------------|
B|-----------------------------------------------------------------------|
G|-----9--9--9-9-9--7--7-7--7--7-7-7-------------------------------------|
D|-----9--9--9-9-9--7--7-7--7--7-7-7--5--5--5-5---9--9-9-9-9-9-9-9-------|
A|-----7--7--7-7-7--5--5-5--5--5-5-5--5--5--5-5---9--9-9-9-9-9-9-9-------|
E|------------------------------------3--3--3-3---7--7-7-7-7-7-7-7-------|

e|---------------------------------------------|
B|---------------------------------------------|
G|---------------------------------------------|
D|-5--5--5-5---9--9-9-9-9-9-9-9-9-9-9-9-9-9-9-9|
A|-5--5--5-5---9--9-9-9-9-9-9-9-9-9-9-9-9-9-9-9|
E|-3--3--3-3---7--7-7-7-7-7-7-7-7-7-7-7-7-7-7-7|


Chorus: Repeat 2x

e|------------------------------------------------------------|
B|------------------------------------------------------------|
G|------------------------------------------5--5-5-5--5-5-5---|
D|--2--2--2-2--5--5-5-5--5-5-5--7--7--7-7---5--5-5-5--5-5-5---|
A|--2--2--2-2--5--5-5-5--5-5-5--7--7--7-7---3--3-3-3--3-3-3---|
E|--0--0--0-0--3--3-3-3--3-3-3--5--5--5-5---------------------|

(Skip this part the second time through the chorus and go to End Chorus)

e|-----------------------------------------------------------|
B|-----------------------------------------------------------|
G|-----------------------------------------------------------|
D|--2--2--2-2--5--5-5-5--5-5-5--9--9--9-9-9-9--9-9--9-9-9-9--|
A|--2--2--2-2--5--5-5-5--5-5-5--9--9--9-9-9-9--9-9--9-9-9-9--|
E|--0--0--0-0--3--3-3-3--3-3-3--7--7--7-7-7-7--7-7--7-7-7-7--|

End Chorus: Play this after you play the first part of the chorus the second time

e|----------------|
B|----------------|
G|----------------|
D|--5--5--5---9---|
A|--5--5--5---9---|
E|--3--3--3---7---|

Intro: Play 2x

e|-------------------------------------------|
B|-------------------------------------------|
G|-----9--X-9-9--9-9--7-7--------------------|
D|-----9--X-9-9--9-9--7-7---7--7-7-7---------|
A|-----7--X-7-7--7-7--5-5---7--7-7-7---------|
E|--------------------------5--5-5-5---------|

Verse: Play 1x

e|-------------------------------------------------------------|
B|-------------------------------------------------------------|
G|-----9--9--9-9-9--7--7-7--7--7-7-7-9--X-9-9--X-9--9--9-9-----|
D|-----9--9--9-9-9--7--7-7--7--7-7-7-9--X-9-9--X-9--9--9-9-----|
A|-----7--7--7-7-7--5--5-5--5--5-5-5-7--X-7-7--X-7--7--7-7-----|
E|-------------------------------------------------------------|

e|-----------------------------------------------------------------------|
B|-----------------------------------------------------------------------|
G|-----9--9--9-9-9--7--7-7--7--7-7-7-------------------------------------|
D|-----9--9--9-9-9--7--7-7--7--7-7-7--5--5--5-5---9--9-9-9-9-9-9-9-------|
A|-----7--7--7-7-7--5--5-5--5--5-5-5--5--5--5-5---9--9-9-9-9-9-9-9-------|
E|------------------------------------3--3--3-3---7--7-7-7-7-7-7-7-------|

e|-------------------------------------------------------------|
B|-------------------------------------------------------------|
G|-----9--9--9-9-9--7--7-7--7--7-7-7-9--X-9-9--X-9--9--9-9-----|
D|-----9--9--9-9-9--7--7-7--7--7-7-7-9--X-9-9--X-9--9--9-9-----|
A|-----7--7--7-7-7--5--5-5--5--5-5-5-7--X-7-7--X-7--7--7-7-----|
E|-------------------------------------------------------------|

e|-----------------------------------------------------------------------|
B|-----------------------------------------------------------------------|
G|-----9--9--9-9-9--7--7-7--7--7-7-7-------------------------------------|
D|-----9--9--9-9-9--7--7-7--7--7-7-7--5--5--5-5---9--9-9-9-9-9-9-9-------|
A|-----7--7--7-7-7--5--5-5--5--5-5-5--5--5--5-5---9--9-9-9-9-9-9-9-------|
E|------------------------------------3--3--3-3---7--7-7-7-7-7-7-7-------|

e|---------------------------------------------|
B|---------------------------------------------|
G|---------------------------------------------|
D|-5--5--5-5---9--9-9-9-9-9-9-9-9-9-9-9-9-9-9-9|
A|-5--5--5-5---9--9-9-9-9-9-9-9-9-9-9-9-9-9-9-9|
E|-3--3--3-3---7--7-7-7-7-7-7-7-7-7-7-7-7-7-7-7|


Chorus: Repeat 2x

e|------------------------------------------------------------|
B|------------------------------------------------------------|
G|------------------------------------------5--5-5-5--5-5-5---|
D|--2--2--2-2--5--5-5-5--5-5-5--7--7--7-7---5--5-5-5--5-5-5---|
A|--2--2--2-2--5--5-5-5--5-5-5--7--7--7-7---3--3-3-3--3-3-3---|
E|--0--0--0-0--3--3-3-3--3-3-3--5--5--5-5---------------------|

(Skip this part the second time through the chorus and go to End Chorus)

e|-----------------------------------------------------------|
B|-----------------------------------------------------------|
G|-----------------------------------------------------------|
D|--2--2--2-2--5--5-5-5--5-5-5--9--9--9-9-9-9--9-9--9-9-9-9--|
A|--2--2--2-2--5--5-5-5--5-5-5--9--9--9-9-9-9--9-9--9-9-9-9--|
E|--0--0--0-0--3--3-3-3--3-3-3--7--7--7-7-7-7--7-7--7-7-7-7--|

End Chorus: Play this after you play the first part of the chorus the second time

e|----------------|
B|----------------|
G|----------------|
D|--5--5--5---9---|
A|--5--5--5---9---|
E|--3--3--3---7---|

Intro: Play 4x

e|-------------------------------------------|
B|-------------------------------------------|
G|-----9--X-9-9--9-9--7-7--------------------|
D|-----9--X-9-9--9-9--7-7---7--7-7-7---------|
A|-----7--X-7-7--7-7--5-5---7--7-7-7---------|
E|--------------------------5--5-5-5---------|

Bridge Part 1:
e|--------------------------------------------------|
B|--------------------------------------------------|
G|--------------------------------------------------|
D|--------------------------------------------------|
A|---7-----------------------------10-9-8-7---------|
E|-----------7----7h8-7-5-7-7h8-7-------------------|

Bridge Part 2: Play 4X

e|--------------------------------------------------------|
B|-------9---------12------11-------10--------------------|
G|--------------------------------------------------------|
D|-----9--------12-------11------10-----------------------|
A|---7-------10--------9-------8--------------------------|
E|--------------------------------------------------------|
  PM.......................................................

Bridge Part 3: Play 4X

e|--------------------------------------------------------------|
B|-------9---------12--------11--------10-----------------------|
G|--------------------------------------------------------------|
D|-----9---9----12----12---11---11---10---10--------------------|
A|---7-------10----------9---------8----------------------------|
E|--------------------------------------------------------------|
  PM.............................................................

Bridge Part 4: Play 4X

e|---------------------------------------------------------------|
B|---9-9-----12-12------11-11-----10-10--------------------------|
G|---------------------------------------------------------------|
D|---9-9-----12-12------11-11-----10-10--------------------------|
A|---7-7-----10-10------9--9------8--8---------------------------|
E|---------------------------------------------------------------|

Verse: Play 1x

e|-------------------------------------------------------------|
B|-------------------------------------------------------------|
G|-----9--9--9-9-9--7--7-7--7--7-7-7-9--X-9-9--X-9--9--9-9-----|
D|-----9--9--9-9-9--7--7-7--7--7-7-7-9--X-9-9--X-9--9--9-9-----|
A|-----7--7--7-7-7--5--5-5--5--5-5-5-7--X-7-7--X-7--7--7-7-----|
E|-------------------------------------------------------------|

e|-----------------------------------------------------------------------|
B|-----------------------------------------------------------------------|
G|-----9--9--9-9-9--7--7-7--7--7-7-7-------------------------------------|
D|-----9--9--9-9-9--7--7-7--7--7-7-7--5--5--5-5---9--9-9-9-9-9-9-9-------|
A|-----7--7--7-7-7--5--5-5--5--5-5-5--5--5--5-5---9--9-9-9-9-9-9-9-------|
E|------------------------------------3--3--3-3---7--7-7-7-7-7-7-7-------|

e|-------------------------------------------------------------|
B|-------------------------------------------------------------|
G|-----9--9--9-9-9--7--7-7--7--7-7-7-9--X-9-9--X-9--9--9-9-----|
D|-----9--9--9-9-9--7--7-7--7--7-7-7-9--X-9-9--X-9--9--9-9-----|
A|-----7--7--7-7-7--5--5-5--5--5-5-5-7--X-7-7--X-7--7--7-7-----|
E|-------------------------------------------------------------|

e|-----------------------------------------------------------------------|
B|-----------------------------------------------------------------------|
G|-----9--9--9-9-9--7--7-7--7--7-7-7-------------------------------------|
D|-----9--9--9-9-9--7--7-7--7--7-7-7--5--5--5-5---9--9-9-9-9-9-9-9-------|
A|-----7--7--7-7-7--5--5-5--5--5-5-5--5--5--5-5---9--9-9-9-9-9-9-9-------|
E|------------------------------------3--3--3-3---7--7-7-7-7-7-7-7-------|

e|---------------------------------------------|
B|---------------------------------------------|
G|---------------------------------------------|
D|-5--5--5-5---9--9-9-9-9-9-9-9-9-9-9-9-9-9-9-9|
A|-5--5--5-5---9--9-9-9-9-9-9-9-9-9-9-9-9-9-9-9|
E|-3--3--3-3---7--7-7-7-7-7-7-7-7-7-7-7-7-7-7-7|


Chorus: Repeat 2x

e|------------------------------------------------------------|
B|------------------------------------------------------------|
G|------------------------------------------5--5-5-5--5-5-5---|
D|--2--2--2-2--5--5-5-5--5-5-5--7--7--7-7---5--5-5-5--5-5-5---|
A|--2--2--2-2--5--5-5-5--5-5-5--7--7--7-7---3--3-3-3--3-3-3---|
E|--0--0--0-0--3--3-3-3--3-3-3--5--5--5-5---------------------|

(Skip this part the second time through the chorus and go to End Chorus)

e|-----------------------------------------------------------|
B|-----------------------------------------------------------|
G|-----------------------------------------------------------|
D|--2--2--2-2--5--5-5-5--5-5-5--9--9--9-9-9-9--9-9--9-9-9-9--|
A|--2--2--2-2--5--5-5-5--5-5-5--9--9--9-9-9-9--9-9--9-9-9-9--|
E|--0--0--0-0--3--3-3-3--3-3-3--7--7--7-7-7-7--7-7--7-7-7-7--|

End Chorus: Play this after you play the first part of the chorus the second time

e|----------------|
B|----------------|
G|----------------|
D|--5--5--5---9---|
A|--5--5--5---9---|
E|--3--3--3---7---|

Intro: Play 4x

e|-------------------------------------------|
B|-------------------------------------------|
G|-----9--X-9-9--9-9--7-7--------------------|
D|-----9--X-9-9--9-9--7-7---7--7-7-7---------|
A|-----7--X-7-7--7-7--5-5---7--7-7-7---------|
E|--------------------------5--5-5-5---------|
comments
We did not receive enough feedback on this tab! Please rate:
print report bad tab
1 2 3 4 5
I want to post or [tab]
guest
You may want to rate the tab now too:
select rating
Please do not post tabs as comments. Select "correction" instead!