Oops, an error
Loading. Please wait.

Welcome To Paradise Tab

version 7
version 7

Interactive

Video

  • High quality, easy to follow video lesson.
1,025 views 96 this week
2 commentsread comments
1 2 3 4 5
1 last vote to show rating
add to favorites
launch autoscroll
font size
0
reset
how to read this tab
guitar tuner
backing track
0:00
0:00
×
Best way to learn
"Welcome To Paradise"
Autoscroll
slow
fast
+/-
esc
set tempo
stop
Author
Tuning
  follow
D A D G B E
-------------------------------------------------------------------------------
                             Welcome to Paradise - Green Day
-------------------------------------------------------------------------------
Tabbed by: DeFt7
E-mail: gstringer77@hotmail.com

First of all this song is usually played in E flat (1/2 step down)
but alas, I am bored and tabbed it in drop D for those of you who are
to lazy to re tune each string or to figure it out yourselves. Your welcome.
some credit to 4_w4lt3r for basic structure
Tuning: Drop D

INTRO (4x)
e|----------------------------------|
B|----------------------------------|
G|-8---x-8-8---8-8--6-6-6-----------|
D|-8---x-8-8---8-8--6-6-6-6---6-6-6-|
A|-6---x-6-6---6-6--4-4-4-6---6-6-6-|
D|------------------------6---6-6-6-|


VERSE (2x)
e|-----------------|-----------------|-----------------|-----------------|
B|-----------------|-----------------|-----------------|-----------------|
G|-8---x-8-8---x-6-|---6---6-6---6---|-8---x-8-8---x-8-|---8---8-8---8---|
D|-8---x-8-8---x-6-|---6---6-6---6---|-8---x-8-8---x-8-|---8---8-8---8---|
A|-6---x-6-6---x-4-|---4---4-4---4---|-6---x-6-6---x-6-|---6---6-6---6---|
D|-----------------|-----------------|-----------------|-----------------|

e|-----------------|-----------------|-----------------|-----------------|
B|-----------------|-----------------|-----------------|-----------------|
G|-8---8---8---x-6-|---6---6-6---6---|-----------------|-----------------|
D|-8---8---8---x-6-|---6---6-6---6---|-4---4---4-4-4-8-|---8-8---8-8-8---|
A|-6---6---6---x-4-|---4---4-4---4---|-4---4---4-4-4-8-|---8-8---8-8-8---|
D|-----------------|-----------------|-4---4---4-4-4-8-|---8-8---8-8-8---|

Play this after second time through
e|-----------------------------------|----------------|
B|-----------------|-----------------|----------------|
G|-----------------|-----------------|----------------|
D|-4---4---4-4-4-8-|--8-8---8-8-8-8--|-8-8-8-8-8-8-8\-|
A|-4---4---4-4-4-8-|--8-8---8-8-8-8--|-8-8-8-8-8-8-8\-|
D|-4---4---4-4-4-8-|--8-8---8-8-8-8--|-8-8-8-8-8-8-8\-|

CHORUS

e|-----------------|-----------------|-----------------|-----------------|
B|-----------------|-----------------|-----------------|-----------------|
G|-----------------|-----------------|-----------------|-----------------|
D|-1---1---1-1-1-4-|---4-4---4-4-4-4-|-6---6---6-6-6-9-|---9-9---9-9-9-9-|
A|-1---1---1-1-1-4-|---4-4---4-4-4-4-|-6---6---6-6-6-9-|---9-9---9-9-9-9-|
D|-1---1---1-1-1-4-|---4-4---4-4-4-4-|-6---6---6-6-6-9-|---9-9---9-9-9-9-|

e|-----------------|-----------------|-----------------|-----------------|
B|-----------------|-----------------|-----------------|-----------------|
G|-----------------|-----------------|-----------------|-----------------|
D|-1---1---1-1-1-4-|---4-4---4-4-4-4-|-8---8---8-8-8-8-|---8-8---8-8-8-8-|
A|-1---1---1-1-1-4-|---4-4---4-4-4-4-|-8---8---8-8-8-8-|---8-8---8-8-8-8-|
D|-1---1---1-1-1-4-|---4-4---4-4-4-4-|-8---8---8-8-8-8-|---8-8---8-8-8-8-|

e|-----------------|-----------------|-----------------|-----------------|
B|-----------------|-----------------|-----------------|-----------------|
G|-----------------|-----------------|-----------------|-----------------|
D|-1---1---1-1-1-4-|---4-4---4-4-4-4-|-6---6---6-6-6-9-|---9-9---9-9-9-9-|
A|-1---1---1-1-1-4-|---4-4---4-4-4-4-|-6---6---6-6-6-9-|---9-9---9-9-9-9-|
D|-1---1---1-1-1-4-|---4-4---4-4-4-4-|-6---6---6-6-6-9-|---9-9---9-9-9-9-|

e|--------------------|-----------------|
B|--------------------|-----------------|
G|--------------------|-----------------|
D|-1-x-x-1-x-x-1-1--8-|-----------------|
A|-1-x-x-1-x-x-1-1--8-|-----------------|
D|-1-x-x-1-x-x-1-1--8-|-----------------|

VERSE 

CHORUS

INTERLUDE

e|-----------------|-----------------|      |-0----|
B|-----------------|-----------------|      |-0----|
G|-8---x-8-8---8-8-|-6-6-6-----------| (4x) |-8----|  Let ring.
D|-8---x-8-8---8-8-|-6-6-6-6---6-6-6-|      |-8----|
A|-6---x-6-6---6-6-|-4-4-4-6---6-6-6-|      |-6----|
D|-----------------|-------6---6-6-6-|      |-0----|

e|-----------------|-----------------|-----------------|-----------------|
B|-----------------|-----------------|-----------------|-----------------|
G|-----------------|-----------------|-----------------|-----------------|
D|-----------------|-----------------|-----------------|-----------------|
A|-----------------|-----------------|-----------------|-----------------|
D|-8/13------------|-----------------|-13\8---------/9-|--\8--p6--h8--/9-|
                                             
e|-----------------|-----------------|-----------------|-----------------|
B|-----------------|-----------------|-----------------|-----------------|
G|-----------------|-----------------|-----------------|-----------------|
D|-----------------|-----------------|-----------------|-----------------|
A|-----------------|-----------------|----------------9|--/8--\7--\6-----|
D|\8---------------|-----------------|-----------------|-----------------|

e|-----------------|-----------------|
B|-----8-------11--|-----10------9---|
G|-----------------|-----------------| Repeat & Listen for the release of the palm mute
D|-----------------|-----------------|       
A|-6-6-----9-9-----|-8-8-----7-7-----|
D|-----------------|-----------------|
pm....................................

VERSE

CHORUS

OUTRO (4x)
e|----------------------------------|----|
B|----------------------------------|----|
G|-8---x-8-8---8-8--6-6-6-----------|--8-|
D|-8---x-8-8---8-8--6-6-6-6---6-6-6-|--8-|
A|-6---x-6-6---6-6--4-4-4-6---6-6-6-|--6-|
D|------------------------6---6-6-6-|----|


Suggest correction
Give kudos to tab author, rate the tab!
1 2 3 4 5
comments
print report bad tab
2 comments total.
0 reply
Carl_Gregson 10 Apr 10, 2017 01:46 PM

This is really good. The drop d makes it so much easier to play than the half step down versions. Keep up the good work!

0 reply
Carl_Gregson 10 Apr 10, 2017 01:46 PM

👍

guest
You may want to rate the tab now too:
select rating
Wanna post a correction for this tab? Suggest correction