Oops, an error
Loading. Please wait.

Welcome To Paradise Tab

version 7
version 7
23,876 views 96 this week
4 commentsread comments
1 2 3 4 5
excellent!
x 34
add to favorites
launch autoscroll
font size
0
reset
how to read this tab
guitar tuner
Autoscroll
slow
fast
+/-
esc
set tempo
stop
Help us to improve Ultimate-Guitar.com Take our survey!
×
Author
Tuning
D# G# C# F# A# D#
Hey Guys!
This might probably be the first 100% correct version of this song on this website. Took 
me a lot of time to figure it out. I´ve collected the best-sounding parts of many 
different tabs.

The tuning is half step down.

Enjoy! ;)


[INTRO]

     Q   E E Q   E E   E E E Q   E E E
eb||-----------------|-----------------||
Bb||-----------------|-----------------||
Gb||-9---x-9-9---9-9-|-7-7-7-----------||
Db||-9---x-9-9---9-9-|-7-7-7-7---7-7-7-||
Ab||-7---x-7-7---7-7-|-5-5-5-7---7-7-7-||
Eb||-----------------|-------5---5-5-5-||



[VERSE]

     Q   E E Q   E Q     Q   E Q   Q     Q   E E Q   E Q     Q   E Q   Q
eb||-----------------|-----------------|-----------------|-----------------|
Bb||-----------------|-----------------|-----------------|-----------------|
Gb||-9---x-9-9---x-7-|---7---7-7---7---|-9---x-9-9---x-9-|---9---9-9---9---|
Db||-9---x-9-9---x-7-|---7---7-7---7---|-9---x-9-9---x-9-|---9---9-9---9---|
Ab||-7---x-7-7---x-5-|---5---5-5---5---|-7---x-7-7---x-7-|---7---7-7---7---|
Eb||-----------------|-----------------|-----------------|-----------------|

    Q   Q   Q   E Q     Q   E Q   Q     Q   Q   E E E Q     E Q   E E Q
eb|-----------------|-----------------|-----------------|-----------------||
Bb|-----------------|-----------------|-----------------|-----------------||
Gb|-9---9---9---x-7-|---7---7-7---7---|-----------------|-----------------||
Db|-9---9---9---x-7-|---7---7-7---7---|-5---5---5-5-5-9-|---9-9---9-9-9---||
Ab|-7---7---7---x-5-|---5---5-5---5---|-5---5---5-5-5-9-|---9-9---9-9-9---||
Eb|-----------------|-----------------|-3---3---3-3-3-7-|---7-7---7-7-7---||

Play twice an then play this:

    Q   Q   E E E Q     E Q   E E E E   E E E E E E Q
eb|-----------------|-----------------|-----------------|
Bb|-----------------|-----------------|-----------------|
Gb|-----------------|-----------------|-----------------|
Db|-5---5---5-5-5-9-|---9-9---9-9-9-9-|-9-9-9-9-9-9-9\--|
Ab|-5---5---5-5-5-9-|---9-9---9-9-9-9-|-9-9-9-9-9-9-9\--|
Eb|-3---3---3-3-3-7-|---7-7---7-7-7-7-|-7-7-7-7-7-7-7\--|


[CHORUS]

    Q   Q   E E E Q     E Q   E E E E   Q   Q   E E E Q     E Q   E E E E
eb|-----------------|-----------------|-----------------|-----------------|
Bb|-----------------|-----------------|-----------------|-----------------|
Gb|-----------------|-----------------|-2---2---2-2-2-5-|---5-5---5-5-5-5-|
Db|-2---2---2-2-2-5-|---5-5---5-5-5-5-|-2---2---2-2-2-5-|---5-5---5-5-5-5-|
Ab|-2---2---2-2-2-5-|---5-5---5-5-5-5-|-0---0---0-0-0-3-|---3-3---3-3-3-3-|
Eb|-0---0---0-0-0-3-|---3-3---3-3-3-3-|-----------------|-----------------|

    Q   Q   E E E Q     E Q   E E E E   Q   Q   E E E Q     E Q   E E E E
eb|-----------------|-----------------|-----------------|-----------------|
Bb|-----------------|-----------------|-----------------|-----------------|
Gb|-----------------|-----------------|-4---4---4-4-4-4-|---4-4---4-4-4-4-|
Db|-2---2---2-2-2-5-|---5-5---5-5-5-5-|-4---4---4-4-4-4-|---4-4---4-4-4-4-|
Ab|-2---2---2-2-2-5-|---5-5---5-5-5-5-|-2---2---2-2-2-2-|---2-2---2-2-2-2-|
Eb|-0---0---0-0-0-3-|---3-3---3-3-3-3-|-----------------|-----------------|

    Q   Q   E E E Q     E Q   E E E E   Q   Q   E E E Q     E Q   E E E E
eb|-----------------|-----------------|-----------------|-----------------|
Bb|-----------------|-----------------|-----------------|-----------------|
Gb|-----------------|-----------------|-2---2---2-2-2-5-|---5-5---5-5-5-5-|
Db|-2---2---2-2-2-5-|---5-5---5-5-5-5-|-2---2---2-2-2-5-|---5-5---5-5-5-5-|
Ab|-2---2---2-2-2-5-|---5-5---5-5-5-5-|-0---0---0-0-0-3-|---3-3---3-3-3-3-|
Eb|-0---0---0-0-0-3-|---3-3---3-3-3-3-|-----------------|-----------------|

    Q   Q   E E E Q
eb|-----------------|-----------------|
Bb|-----------------|-----------------|
Gb|---------------4-|-----------------|
Db|-2---2---2-2-2-4-|-----------------|
Ab|-2---2---2-2-2-2-|-----------------|
Eb|-0---0---0-0-0---|-----------------|


[INTERLUDE]

     Q   E E Q   E E   E E E Q   E E E
eb||-----------------|-----------------||           |-0----|
Bb||-----------------|-----------------||           |-0----|
Gb||-9---x-9-9---9-9-|-7-7-7-----------|| 2x, then  |-0----|  let ring
Db||-9---x-9-9---9-9-|-7-7-7-7---7-7-7-||           |-2----|
Ab||-7---x-7-7---7-7-|-5-5-5-7---7-7-7-||           |-2----|
Eb||-----------------|-------5---5-5-5-||           |-0----|

                                                      Q     Q   Q   Q   Q
eb|-----------------|-----------------|-----------------|-----------------|
Bb|-----------------|-----------------|-----------------|-----------------|
Gb|-----------------|-----------------|-----------------|-----------------|
Db|-----------------|-----------------|-----------------|-----------------|
Ab|-2/7-------------|-----------------|-7\2----------/3-|--\2--p0--h2--/3-|
Eb|-----------------|-----------------|-----------------|-----------------|

                                                      Q     Q   Q   Q.
eb|-----------------|-----------------|-----------------|-----------------|
Bb|-----------------|-----------------|-----------------|-----------------|
Gb|-----------------|-----------------|-----------------|-----------------|
Db|-----------------|-----------------|-----------------|-----------------|
Ab|\2---------------|-----------------|--------------/10|--/9--\8--\7-----|
Eb|-----------------|-----------------|-----------------|-----------------|

     E E E E E E E E   E E E E E E E E
eb||-----------------|-----------------||
Bb||-----9-0-----120-|-----110-----100-||
Gb||-----------------|-----------------||    repeat a couple
Db||-----------------|-----------------||       of times
Ab||-7-7-----1010----|-9-9-----8-8-----||
Eb||-----------------|-----------------||
pm.....................................

Then play the same again without palm muting a few times.


[OUTRO] which is basically the intro.

     Q   E E Q   E E   E E E Q   E E E
eb||-----------------|-----------------||            |-----------------|
Bb||-----------------|-----------------||            |-----------------|
Gb||-9---x-9-9---9-9-|-7-7-7-----------||  4x, then  |-9\--------------|
Db||-9---x-9-9---9-9-|-7-7-7-7---7-7-7-||            |-9\--------------|
Ab||-7---x-7-7---7-7-|-5-5-5-7---7-7-7-||            |-7\--------------|
Eb||-----------------|-------5---5-5-5-||            |-----------------|


That's all you need.
This is the order:

INTRO
VERSE
CHORUS
INTRO
VERSE
CHORUS
INTERLUDE
INTRO
VERSE
CHORUS
OUTRO

I think you might be able to figure it out how often you have to play which part.

Enjoy!
Suggest correction
comments
print report bad tab
4 comments total. Showing first comments.
0 reply
TheSlyFooX 91 wrote on November 20 2012, 11:34 am

This is crap because I wrote this down but never tabbed it!

0 reply
Beelzers 83 wrote on July 3 2013, 09:40 am

It ain't crap!! It's awesome!! book or not I love it

0 reply
Bloodslider 137 wrote on January 4 2014, 04:14 am

everything sounds good it's great

guest
You may want to rate the tab now too:
select rating
Wanna post a correction for this tab? Suggest correction