Oops, an error
Loading. Please wait.

Westbound Sign Bass Tab

version 2
version 2

Whole song

Interactive

1,151 views 6 this week
1 commentread comment
1 2 3 4 5
x 5
add to favorites
launch autoscroll
font size
0
reset
guitar tuner
Autoscroll
slow
fast
+/-
esc
set tempo
stop
Help us to improve Ultimate-Guitar.com Take our survey!
×
Author
Difficulty
Tuning
intermediate
E A D G B E
This is the bass tab for Green Day's 'Westbound Sign' from the album Isomniac. The tabs 
before this were off so i re-tabbed them, this is more simple and accurate.

Guitar opens the song:

Intro:

G-----|------------------------------|
D-----|------------------------------|
A-----|--------------6-6--6----------|         x2
E--6--|----6-6-66--33----------------|


Verse:

G-----------------------------------------------------------|
D-----------------------------------------------------------|       X4
A-------------------------------------6--6-6-6-6-6-6--------|
E-6--6-6-6-6--1--1-1-1-1-1--3--3-3-3-3----------------------|


Chorus:

G--------------------------|
D--------------------------|
A-----------6-6--6---------|        x4
E-6-6-66--33---------------|


Verse:

G-----------------------------------------------------------|
D-----------------------------------------------------------|       X4
A-------------------------------------6--6-6-6-6-6-6--------|
E-6--6-6-6-6--1--1-1-1-1-1--3--3-3-3-3----------------------|


Chorus:

G--------------------------|
D--------------------------|
A-----------6-6--6---------|        x4
E-6-6-66--33---------------|


Bridge:

G-----------------------------------------------------|
D-----------------------------------------------------|
A-------------------------6--6-6-6-6------------------|       x3
E-1--1-1-1-1---4--4-4-4-4-----------6--6-6-6-6--------|

On the fourth time play:

G-----------------------------------------------------|
D-----------------------------------------------------|
A----------------------------666666666666-------------|            x1
E-1--1-1-1-1---4--4-4-4-4-----------------------------|

Verse: (Instrumental Blast)

G-----------------------------------------------------------|
D-----------------------------------------------------------|       X3
A-------------------------------------6--6-6-6-6-6-6--------|
E-6--6-6-6-6--1--1-1-1-1-1--3--3-3-3-3----------------------|

On the fourth time play:

G--------------------------------------------------------------------|
D--------------------------------------------------------------------|       X3
A-------------------------------------6--6-6-6-6-6-6-----------------|
E-6--6-6-6-6--1--1-1-1-1-1--3--3-3-3-3--------------6-------6--------|

Outro
G--------------------------|
D--------------------------|
A-----------6-6--6---------|        x3
E-6-6-66--33---------------|

On the fourth time play:

G----------------------------|
D----------------------------|
A-----------6-6--6-----------|        x1
E-6-6-66--33-------6---------|

Thats it, easy. Fun song to play.
Suggest correction
comments
print report bad tab
1 comment total.
0 reply
TakeLuckRachel 10 Jun 03, 2012 02:48 AM

great job, I play it a little different, same notes but slightly different amount of times. I don't know what the other two bass tabs for this song were thinking, your version is awesome. 5 stars, man.

guest
You may want to rate the tab now too:
select rating
Wanna post a correction for this tab? Suggest correction