Oops, an error
Loading. Please wait.

Westbound Sign Bass Tab

version 3
version 3

Whole song

Interactive

347 views 1 this week
no commentswrite comment
1 2 3 4 5
3 more votes to show rating
add to favorites
launch autoscroll
font size
0
reset
guitar tuner
Autoscroll
slow
fast
+/-
esc
set tempo
stop
Help us to improve Ultimate-Guitar.com Take our survey!
×
Artist: Green Day
Song: Westbound Sign
Album: Insomniac



Intro
Gb:------|  |------------------|
Db:------|  |------4---6-------| x2
Ab:-2~---|  |-2-222------7-77--|
Eb:------|  |--------4---------|


Verse
|---------------------------------|
|------4---------------2----------| x4
|-2-222---------------------------|
|--------2-222-22-4-444--0-000000-|


Chorus
|------------------|
|------4---6-------| x4
|-2-222------7-77--|
|--------4---------|


Verse x4
Chorus x4


Bridge				     
|---------------------------------|   |-----------------------------------|
|---------------------------------|x3 |-----------------------------------|
|----------------------7----------|   |-----------------------------------|
|-2-2222-5-555555-0-000--7-777777-|   |--2-2222-5-555555-0-00000000000000-|


Verse x4
Intro
Chorus x2

End on Ab-2



black_friday_ruled780@yahoo.com
Suggest correction
Give kudos to tab author, rate the tab!
1 2 3 4 5
comments
print report bad tab
guest
You may want to rate the tab now too:
select rating
Wanna post a correction for this tab? Suggest correction