Oops, an error
Loading. Please wait.

Whatsername Bass Tab

version 1
version 1

Whole song

34,384 views 81 this week
9 commentsread comments
1 2 3 4 5
x 38
add to favorites
launch autoscroll
font size
0
reset
guitar tuner
×
Best way to learn
"Whatsername"
Autoscroll
slow
fast
+/-
esc
set tempo
stop
GREEN DAY-WHATSERNAME, BASS TAB

[Intro] X2
G--------------------------------------------------------------------------------------|
D--------------------------------------------------------------------------------------|
A--5-5-5-5-5-5-5-5-5-5-5-5-5-5-5-5-2-2-2-2-2-2-2-2-2-2-2-2-2-2-2-2---------------------|
E--------------------------------------------------------------------------------------|

[Verse] X2
G--------------------------------------------------------------------------------------|
D--------------------------------------------------------------------------------------|
A--5-5-5-5-5-5-5-5-5-5-5-5-5-5-5-2-2-2-2-2-2-2-2-2-2-2-2-2-2-2-2-2---------------------|
E--------------------------------------------------------------------------------------|

[Chorus] X3(I made a point to...)              (4th time)
G---------------------------------------------------------------|--------------------------------|
D--5-5-5-5-5-5-5-------------4-4-4-4-4-4------------------------|-5-5-5-5-5-5-5-5----------------|
A----------------5-5-5-5-5-5------------2-2-2-2-2-2-0-0-0-0-0-0-|----------------5-5-5-5-5-5-5-5-|
E---------------------------------------------------------------|--------------------------------|

Intro X2
Verse X2
Chorus X3

[Interlude] X1
G--------------------------------------------------------------------------------------|
D--------------------------------------------------------------------------------------|
A--5-5-5-5-5-5-5-5-5-5-5-5-5-5-5-2-2-2-2-2-2-2-2-2-2-2-2-2-2-2-2-2---------------------|
E--------------------------------------------------------------------------------------|

[Solo] X2
G---------------------------------------------------------------|
D--5-5-5-5-5-5-5-------------4-4-4-4-4-4------------------------|
A----------------5-5-5-5-5-5------------2-2-2-2-2-2-0-0-0-0-0-0-|
E---------------------------------------------------------------|

[Bridge] X4 (remember, whatever...)
G-------------------------------------------------------------|----------------------------------------------|
D-5-5-5-5-5-5-5------------4-4-4-4-4-4------------------------|--5-5-5-5-------4-4-4-4-----------------------|
A--------------5-5-5-5-5-5------------2-2-2-2-2-2-0-0-0-0-0-0-|---------5-5-5-5-------2-2-2-2-2-2-0-0-0-0-0-0|
E-------------------------------------------------------------|----------------------------------------------|

[Bridge] X2 (and in the...)
G---------------------------------------------------------------|
D--5-5-5-5-5-5-5-------------4-4-4-4-4-4------------------------|
A----------------5-5-5-5-5-5------------2-2-2-2-2-2-0-0-0-0-0-0-|
E---------------------------------------------------------------|

Intro=outro

This is my first tab, I think it's good.
The number of notes may not be accurate, but just listen to the music, and you'll
find out!
Please rate! Have fun!

Ernst, the Netherlands
Suggest correction
comments
print report bad tab
9 comments total. Showing first comments. show 1 bad comment
+1 reply
SpUnKtAsTiC 10 May 28, 2005 08:00 PM

This tab is totally amazing!! Good job, and keep up the good work!!

+3 reply
BassSurfer 80 Dec 28, 2005 03:13 PM

dude great job excellent your gunna be a good tabber so far and no its not drop d its green day.... i can tell your no good

guest
You may want to rate the tab now too:
select rating
Wanna post a correction for this tab? Suggest correction