Oops, an error
Loading. Please wait.
We have an official Whatsername tab made by UG professional guitarists. Check out the tab »
×

Whatsername bass

100 views 1 this week
1 commentread comment
1 2 3 4 5
2 more votes to show rating
add to favorites
×
Save as Personal and add changes to this tab that will be seen only by you. Learn more ›
×
You can save this tab as Personal to edit and correct it or add notes. All changes will be seen only by you. Learn more »
launch autoscroll
font size
0
reset
guitar tuner
backing track
0:00
0:00
edit
Autoscroll
slow
fast
+/-
esc
set tempo
stop
About this tab version
This tab is easy to read, learn and play in comparison to the others. I have accurately shown what bars to play with palm mute which others do not correctly do. I have also corrected the tuning, rhythm and chords to as it is on the record. Was this info helpful? Yes No
240 BPM
16 Beats per Bar (for easy to read access)
4 Bars per line
2 Seconds per bar (8 per line)

\ Slide down
~ Ring out

YouTube Video to play along to: https://www.youtube.com/watch?v=Z2LC1xrdOaM

(0:00 - From the hi hat)
D|----------------|----------------|----------------|----------------| x16 
A|----------------|----------------|----------------|----------------|
D|----------------|----------------|----------------|----------------|
G|----------------|----------------|----------------|----------------|

(1:04 - Right after lyrics: "Now I  wonder how whatsername has been" - Palm muted)
D|----------------|----------------|----------------|----------------|
A|5-5-5-5-5-5-5-5-|5-5-5-5-5-5-5-0-|2-2-2-2-2-2-2-2-|2-2-2-2-2-2-2-0-| x4 
D|----------------|----------------|----------------|----------------|
G|----------------|----------------|----------------|----------------|

(1:36 - Palm muted)
D|5-5-5-5-5-5-5-5-|----------------|----------------|9-9-9-9-7-7-7-7-|
A|----------------|5-5-5-5-5-5-5-5-|9-9-9-9-9-9-9-0-|----------------|
D|----------------|----------------|----------------|----------------|
G|----------------|----------------|----------------|----------------|

(1:44 - Palm muted)
D|5-5-5-5-5-5-5-5-|----------------|4-4-4-4-4-4-4-4-|9-9-9-9-7-7-7-7-|
A|----------------|5-5-5-5-5-5-5-0-|----------------|----------------|
D|----------------|----------------|----------------|----------------|
G|----------------|----------------|----------------|----------------|

(1:52 - Palm muted)
D|5-5-5-5-5-5-5-5-|----------------|----------------|9-9-9-9-7-7-7-7-|
A|----------------|5-5-5-5-5-5-5-5-|9-9-9-9-9-9-9-0-|----------------|
D|----------------|----------------|----------------|----------------|
G|----------------|----------------|----------------|----------------|

(2:00 - Lyrics: "Now I wonder how whatshername has been")
D|5-5-5-5-5-5-5-5-|7-7-7-7-7-7-7-7-|----------------|----------------|
A|----------------|----------------|----------------|----------------|
D|----------------|----------------|----------------|----------------|
G|----------------|----------------|----------------|----------------|

(2:08)
D|----------------|----------------|----------------|----------------|
A|2-2-2-2-2-2-2-2-|2-2-2-2-2-2-2-2-|----------------|----------------|
D|----------------|----------------|----------------|----------------|
G|----------------|----------------|----------------|----------------|

(2:16)
D|----------------|----------------|5-5-5-5-5-5-5-5-|0-0-0-0-0-0-0---|
A|2-2-2-2-2-2-2-2-|2-2-2-2-2-2-12\-|----------------|5-5-5-5-5-5-5-0-|
D|----------------|----------------|----------------|----------------|
G|----------------|----------------|----------------|----------------|

(2:24)
D|4-4-4-4-4-4-4-0-|----------------|5-5-5-5-5-5-5-5-|0-0-0-0-0-0-0---|
A|----------------|2-2-2-2-0-0-0-0-|----------------|5-5-5-5-5-5-5-0-|
D|----------------|----------------|----------------|----------------|
G|----------------|----------------|----------------|----------------|

(2:32)                             (Lyrics: "Remember whatever")
D|----------------|--------------0-|5-5-5-5-5-5-5-5-|0-0-0-0-0-0-0---|
A|9-9-9-9-9-9-9-0-|2-2---2-0-0-0---|----------------|5-5-5-5-5-5-5-0-|
D|----------------|----------------|----------------|----------------|
G|----------------|----4-----------|----------------|----------------|

(2:40)                             (Lyrics: "Remember whatever")
D|----------------|0-0-0-0-0-0-0---|5-5-5-5-5-5-5-5-|0-0-0-0-0-0-0---|
A|0-0-0-0-0-0-0-0-|5-5-5-5-5-5-5-0-|----------------|5-5-5-5-5-5-5-5-|
D|7-7-7-7-7-7-7---|----------------|----------------|----------------|
G|----------------|----------------|----------------|----------------|

(2:48)
D|----------------|0-0-0-0-0-0-----|5-5-5-5-5-5-5-5-|0-0-0-0-0-0-0---|
A|0-0-0-0-0-0-0-0-|5-5-5-5-5-5-12\-|----------------|5-5-5-5-5-5-5-0-|
D|----------------|----------------|----------------|----------------|
G|----------------|----------------|----------------|----------------|

(2:56)
D|4-4-4-4-4-4-4-0-|----------------|5-5-5-5-5-5-5-5-|0-0-0-0-0-0-0---|
A|----------------|2-2-2-2-0-0-0-0-|----------------|5-5-5-5-5-5-5-0-|
D|----------------|----------------|----------------|----------------|
G|----------------|----------------|----------------|----------------|

(3:04)
D|----------------|----------------|5-5-5-5---------|0-0-0-0---------|
A|9-9-9-9-9-9-9-0-|2-2---2-0-0---0-|----------------|5-5-5-5---------|
D|----------------|----------------|----------------|----------------|
G|----------------|----4-------2---|----------------|----------------|

(3:12)
D|4-4-4-4---------|----------------|5-5-5-5---------|0-0-0-0---------|
A|----------------|2-2-2-2-0-0-0-0-|----------------|5-5-5-5---------|
D|----------------|----------------|----------------|----------------|
G|----------------|----------------|----------------|----------------|

(3:20)                             (Lyrics: "And in the darkest night")
D|----------------|----------------|5-5-5-5-5-5-5-5-|7-7-7-7-7-0-0-0-|
A|9-9-9-9---------|2-2-2-2-0-0-0-0-|----------------|----------5-5-5-|
D|----------------|----------------|----------------|----------------|
G|----------------|----------------|----------------|----------------|

(3:28)
D|5-5-5-5-5-5-5-5-|7-7-7-7-7-0-0-0-|5-5-5-5-5-5-5-5-|7-7-7-7-7-0-0-0-|
A|----------------|----------5-5-5-|----------------|----------5-5-5-|
D|----------------|----------------|----------------|----------------|
G|----------------|----------------|----------------|----------------|

(3:36 - Lyrics: "Forgetting you but not the time" - 'A' string Palm muted)
D|5-5-5-5-5-5-5-5-|7-7-7-7-7-7-7-7-|----------------|----------------|
A|----------------|----------------|5-5-5-5-5-5-5-5-|5-5-5-5-5-5-5-0-|
D|----------------|----------------|----------------|----------------|
G|----------------|----------------|----------------|----------------|

(3:44 - Palm muted)
D|----------------|----------------|----------------|----------------|
A|2-2-2-2-2-2-2-2-|2-2-2-2-2-2-2-0-|5-5-5-5-5-5-5-5-|5-5-5-5-5-5-5-0-|
D|----------------|----------------|----------------|----------------|
G|----------------|----------------|----------------|----------------|

(3:52 - 'A' string Palm muted)     (Let it ring out)
D|----------------|----------------|----------------|----------------|
A|2-2-2-2-2-2-2-2-|2-2-2-2-2-2-2-0-|----------------|----------------|
D|----------------|----------------|0~~~~~~~~~~~~~~~|~~~~~~~~~~~~~~~~|
G|----------------|----------------|----------------|----------------|
Suggest correction
Creating personal tab
Creating personal tab
You can edit any tab online and save it as your Personal.

You can edit, replace or remove any tab part or add personal notes – all changes will be seen only by you.

Personal tabs can be accessed anytime from any device, even offline.
Learn more »
Give kudos to tab author, rate the tab!
1 2 3 4 5
comments
print report bad tab
1 comment total.
0 reply
Dr.Cheese 14 May 10, 2017 09:51 AM

All the notes are perfect, apart from the string being upside down.

The "Now I wonder how whatshername has been" part is a half measure so I think everything would line up better if you showed it as such.

guest
You may want to rate the tab now too:
select rating
Wanna post a correction for this tab? Suggest correction