Oops, an error
Loading. Please wait.

Whatsername Tab

version 7
3,330 views 6 this week
1 commentread comment
1 2 3 4 5
accurate
x 5
add to favorites
launch autoscroll
font size
0
reset
how to read this tab
guitar tuner
Tab Pro tools
  • play this tab
  • loop segment
  • change instrument
  • show fretboard
  • metronome
×
Best way to learn
"Whatsername"
Autoscroll
slow
fast
+/-
esc
set tempo
stop
Intro
------------------------------------|
------------------------------------|
-7-7-7-7---------7-7-7-7------------|
-7-7-7-7-9-9-9-9-7-7-7-7-9-9-9-9----|
-5-5-5-5-9-9-9-9-5-5-5-5-9-9-9-9----|
---------7-7-7-7---------7-7-7-7----|

verse
--------------------------------------|
--------------------------------------|
-7-7-7-7---------7-7-7-7--------------|
-7-7-7-7-9-9-9-9-7-7-7-7-9-9-9-9------|
-5-5-5-5-9-9-9-9-5-5-5-5-9-9-9-9------|
---------7-7-7-7---------7-7-7-7------|

------------------------------------------------|
------------------------------------------------|
---------7-7-7-7--------------------------------|
-5-5-5-5-7-7-7-7-4-4-4-4-9-9-7-7-5-5-7-7-7-7----|
-5-5-5-5-5-5-5-5-4-4-4-4-9-9-7-7-5-5-7-7-7-7----|
-3-3-3-3---------2-2-2-2-7-7-5-5-3-3-5-5-5-5----|

Guitar 1 do the verse again

Guitar 2:
--------------------------------------|
--------------------------------------|
--7----9-11--7--4--6-7----------------|  x2
--------------------------------------|
--------------------------------------|
--------------------------------------|

While guitar 1 still doing the verse...

...guitar 2:
------------------------------------------|
------------------------------------------|
--7---------7------------7----------------|
--7----9----7----9----5--7--4--9-7-5------|
--5----9----5----9----5--5--4--9-7-5------|
-------7---------7----3-----2--7-5-3------|

-----------------------------------------|
-----------------------------------------|
------6/7-7---6/7------------------------|
----7-------7------9-9-9-9---------------|   x2
--5----------------9-9-9-9---------------|
-------------------7-7-7-7---------------|

solo

Guitar 1
---------------------------------------------|
---------------------------------------------|
----------7-7-7-7----------------------------|
--5-5-5-5-7-7-7-7-4-4-4-4-9-9-7-7-5-5--------|  x2
--5-5-5-5-5-5-5-5-4-4-4-4-9-9-7-7-5-5--------|
--3-3-3-3---------2-2-2-2-7-7-5-5-3-3--------|

Guitar 2
-------------------------------------------------------|
-------------------------------------------------------|
---7-7-6-7---7-6-7--2-2-3----3-3-6-3-3-4--4-4-6-4-6-7--|   x2
-------------------------------------------------------|
-------------------------------------------------------|
-------------------------------------------------------|

Chorus
----------------------------------------------|
----------------------------------------------|
----------7-7-7-7---------7-7-7-7-------------|
--5-5-5-5-7-7-7-7-7-7-7-7-7-7-7-7-------------|    x2
--5-5-5-5-5-5-5-5-7-7-7-7-5-5-5-5-------------|
--3-3-3-3---------5-5-5-5---------------------|

----------------------------------------------|
----------------------------------------------|
----------7-7-7-7-----------------------------|
--5-5-5-5-7-7-7-7-4-4-4-4-9-9-7-7-5-5---------|  x2
--5-5-5-5-5-5-5-5-4-4-4-4-9-9-7-7-5-5---------|
--3-3-3-3---------2-2-2-2-7-7-5-5-3-3---------|

-------------------------------------------------|
-------------------------------------------------|
-------------------------------------------------|
--5-5-5-5----4-4-4-4-----4-4-4-4-----9-9-7-7-5---|     x2
--5-5-5-5----4-4-4-4-----4-4-4-4-----9-9-7-7-5---|
--3-3-3-3----2-2-2-2-----2-2-2-2-----7-7-5-5-3---|

----------------------------------------------|
----------------------------------------------|
----------------------------------------------|
-5-5-5-5-7-7-7-7---5---5-5-5-5-7-7-7-7--------|
-5-5-5-5-7-7-7-7-0-5-0-5-5-5-5-7-7-7-7--------|
-3-3-3-3-5-5-5-5-0-3-0-3-3-3-3-5-5-5-5--------|

outro

Guitar 1
-----------------------------------------|
-----------------------------------------|
--7-7-7-7---------7-7-7-7---------7------|
--7-7-7-7-9-9-9-9-7-7-7-7-9-9-9-9-7------|
--5-5-5-5-9-9-9-9-5-5-5-5-9-9-9-9-5------|
----------7-7-7-7---------7-7-7-7--------|

Guitar 2:
---------------------------------------|
---------------------------------------|
--7----9-11--7--4--6-7-----------------|
---------------------------------------|
---------------------------------------|
---------------------------------------|
comments
print report bad tab
1 comment total.
0 reply
Donkey Fly wrote on May 26 2005, 12:00 am

ye , good tab.....the solo (guitar 2)could be better but that dont matter much...well done

I want to post or [tab]
guest
You may want to rate the tab now too:
select rating
Please do not post tabs as comments. Select "correction" instead!