Oops, an error
Loading. Please wait.

When I Come Around Bass Tab

version 1
189,640 views 192 this week
23 commentsread comments
1 2 3 4 5
x 36
add to favorites
launch autoscroll
font size
0
reset
guitar tuner
Autoscroll
slow
fast
+/-
esc
set tempo
stop
Help us to improve Ultimate-Guitar.com Take our survey!
×
Author
Tuning
D# G# C# F# A# D#
WHEN I COME AROUND (Bassline)
                            As recorded by Green Day
                          (From the 1994 Album DOOKIE)

Words by Billie Joe

Music by Green Day
Transcribed by Jake Brown

Gtr I (Eb Ab Db Gb) - 'Bass'


[Intro]

    Q=98
   4/4
    Gtr I
    Wx2          H    E E S S S S     E S S S S E E S S S S S S
F#|------------|----------4h5p4p0-||--------5p4p0----------------|
C#|------------|--------5---------||o-5-5-5-------------4h5p4p0--|
G#|------------|------------------||o-------------5-5-5----------|
D#|------------|------------------||-----------------------------|


    PM                                               PM
    e E E E +Q   S S E   E S S S S E E S S S S S S   e E S S E +E  E S S S S
F#|--------------------|-------5p4p0---------------|-----2h4-----------------||
C#|-2-2-2--------------|-5-5-5-------------4h5p4p0-|-2-2---------------------||
G#|-------3-(3)--3h4s5-|-------------5-5-5---------|---------3-(3)-3-3h4h5S7-||
D#|--------------------|---------------------------|-------------------------||


[Verse]
                                  PM
      E S S S S E E S S S S S S   e E S S E +E  E S S S S  4x
F#||--------5p4p0---------------|-----2h4------------------||
C#||o-5-5-5-------------4h5p4p0-|-2-2---------------------o||
G#||o-------------5-5-5---------|---------3-(3)-3-3h4h5S7-o||
D#||----------------------------|--------------------------||


        E S S S S S S E S S S S S S
F#|-||--------5p4p0-------------------|
C#|-||o-5-5-5-------x-------4h5p4p0---|
G#|-||o---------------5-5-5-----------|
D#|-||--------------------------------|


    PM
    e E S S E +E  S S S S S S  3x
F#|-----2h4--------------------||
C#|-2-2-----------------------o||
G#|---------3-(3)-3-3-3h4h5S7-o||
D#|----------------------------||


                                PM
    E S S S S E E S S S S S S   e E S S E +E. +S   Q
F#|-------5p4p0---------------|-----2h4----------------||
C#|-5-5-5-------------4h5p4p0-|-2-2--------------------||
G#|-------------5-5-5---------|---------3-(3)-(3)S12\--||
D#|---------------------------|------------------------||


[Chorus]

    E E E E E E E E   E E E E E S S E E   E E E E E E E E   E E E E E E S E.
F#|-----------------|-----------0h2-0---|-----------------|-------------5p4--||
C#|-----------------|-----------------0-|-----------------|------------------||
G#|-0-0-0-0-0-0-0-2-|-3-3-3-3-3---------|-0-0-0-0-0-0-0-2-|-3-3-3-3-3--------||
D#|-----------------|-------------------|-----------------|------------------||


[Interlude]
                                    PM
      E S S S S S S E S S S S S S   e E S S E +E  E S S S S
F#||--------5p4p0-----------------|-----2h4------------------||
C#||o-5-5-5-------x-------4h5p4p0-|-2-2---------------------o||
G#||o---------------5-5-5---------|---------3-(3)-3-3h4h5S7-o||
D#||------------------------------|--------------------------||


[Verse]

      E S S S S S S E S S S S S S
F#||--------5p4p0-----------------|
C#||o-5-5-5-------x-------4h5p4p0-|
G#||o---------------5-5-5---------|
D#||------------------------------|


    1.,2.,3.,4.,5.,6.,7.            8.
    PM                              PM
    e E S S E +E  S  S  S S S S  8x e E S S E +E. +S   Q
F#|-----2h4----------------------||-----2h4-----------------||
C#|-2-2-------------------------o||-2-2---------------------||
G#|---------3-(3)-3-(3)-3h4h5S7-o||---------3-(3)-(3)S12\---||
D#|------------------------------||-------------------------||


[Chorus]

    E E E E E E E E   E E E E E S S E E   E E E E E E E E   E E E E E E S E.
F#|-----------------|-----------0h2-0---|-----------------|-------------5p4--||
C#|-----------------|-----------------0-|-----------------|------------------||
G#|-0-0-0-0-0-0-0-2-|-3-3-3-3-3---------|-0-0-0-0-0-0-0-2-|-3-3-3-3-3--------||
D#|-----------------|-------------------|-----------------|------------------||


[Interlude/guitar solo]
                                  PM
    E S S S S S S E S S S S S S   e E S S E +E  E S S S S
F#|-------5p4p0-----------------|-----2h4-----------------|
C#|-5-5-5-------x-------4h5p4p0-|-2-2---------------------|
G#|---------------5-5-5---------|---------3-(3)-3-3h4h5S7-|
D#|-----------------------------|-------------------------|


      E S S S S S S E S S S S S S
F#||--------5p4p0-----------------|
C#||o-5-5-5-------x-------4h5p4p0-|
G#||o---------------5-5-5---------|
D#||------------------------------|


    PM
    e E S S E +E  S S S S S S
F#|-----2h4--------------------||
C#|-2-2-----------------------o||
G#|---------3-(3)-3-3-3h4h5S7-o||
D#|----------------------------||


                                  PM
    E S S S S S S E S S S S S S   e E S S E +E. +S   Q
F#|-------5p4p0-----------------|-----2h4------------------||
C#|-5-5-5-------x-------4h5p4p0-|-2-2----------------------||
G#|---------------5-5-5---------|---------3-(3)-(3)S12\----||
D#|-----------------------------|--------------------------||


[Chorus]

    E E E E E E E E   E E E E E S S E E   E E E E E E E E   E E E E E E S E.
F#|-----------------|-----------0h2-0---|-----------------|-------------5p4--||
C#|-----------------|-----------------0-|-----------------|------------------||
G#|-0-0-0-0-0-0-0-2-|-3-3-3-3-3---------|-0-0-0-0-0-0-0-2-|-3-3-3-3-3--------||
D#|-----------------|-------------------|-----------------|------------------||


[Outro]

      E S S S S S S E S S S S S S
F#||--------5p4p0-----------------|
C#||o-5-5-5-------x-------4h5p4p0-|
G#||o---------------5-5-5---------|
D#||------------------------------|


    1.,2.,3.                      4.
    PM                            PM
    e E S S E +E  S S S S S S  4x e E S S E +H
F#|-----2h4--------------------||-----2h4----------*|
C#|-2-2-----------------------o||-2-2--------------*|
G#|---------3-(3)-3-3-3h4h5S7-o||---------3-(3)----*|
D#|----------------------------||------------------*|



Duration Legend
---------------
W - whole; H - half; Q - quarter; E - 8th; S - 16th; T - 32nd; X - 64th; a - acciaccatura
+ - note tied to previous; . - note dotted; .. - note double dotted
Uncapitalized letters represent notes that are staccato (1/2 duration)
Irregular groupings are notated above the duration line
Duration letters will always appear directly above the note/fret number it represents the
duration for.  Duration letters with no fret number below them represent rests.  Multi-
bar rests are notated in the form Wxn, where n is the number of bars to rest for.  Low
melody durations appear below the staff

************************************

| x    Dead note
| (n)  Ghost note
| h    Hammer-on
| p    Pull-off
| \    Slide down
| s    Legato slide
| S    Shift slide

************************************

Misc Legend
-----------
 |  - bar
||  - double bar
||o - repeat start
o|| - repeat end
*|  - double bar (ending)
 :  - bar (freetime)
 $  - Segno
 &  - Coda
Tempo markers -  = BPM(8/16=s8/s16), where s8 = swing 8ths, s16 = swing 16ths



Suggest correction
comments
print report bad tab
23 comments total. Showing first comments.
0 reply
Liam 1,995 Jan 12, 2005 12:00 AM

i like it when people tab the offical tabs, thanks

0 reply
Mudvayne1217 70 May 04, 2005 12:00 AM

dude...f****ng awesome tab..nice work man

-1 reply
Donkey Fly 2,606 Jun 19, 2005 12:00 AM

this is from a power tab site , ITS A COPY!!!!!!!!!!!, I HAVE IT ON MY COMP ......

guest
You may want to rate the tab now too:
select rating
Wanna post a correction for this tab? Suggest correction