Oops, an error
Loading. Please wait.

When I Come Around Guitar Pro

version 2
12,380 views 1 this week
5 commentsread comments
1 2 3 4 5
accurate
x 6
add to favorites
guitar tuner
Autoscroll
slow
fast
+/-
esc
set tempo
stop
Filesize
Instruments
22 Kb
guitar #1, guitar #2, bass, percussion, vocal
"When I Come Around"
demo version
Play now

or get full version for Free

Get full version now!
To learn and play this song
in Tab Pro, start free trial
Start free trial

or get $10 off Welcome Bonus

Get welcome bonus
Get access to Tab Pro version of “When I Come Around”!
Tab Pro is a premium guitar tab service, available on PC, Mac, iOS and Android
START FREE TRIAL
To download “When I Come Around” Guitar Pro tab click button below
Please note that you must have Guitar Pro software installed on your
computer in order to view this file.
comments
report bad tab
5 comments total. Showing first comments.
0 reply
guitarmaniac17 wrote on December 5 2005, 09:41 pm

good, but the solo is way off

0 reply
SumGreenNOFX182 wrote on December 10 2005, 09:42 am

In the main riff, it's not
e---------------------------------------------------
B---------------------------------------------------
G------------------4----8-8-8-4---------------------
D---------4----6-6-4-44-8-8-8-4----4----------------
A--44-4-4-4-44-4-4-6-66-6-6-6-2----4----------------
E--22-2-2-2-22---------------------2----------------

It's

e---------------------------------------------------
B---------------------------------------------------
G---------------6-xx---8-4------4-------------------
D------4-xx-----6-xx---8-4------4-------------------
A------4-xx-4-4-4-xx-6-6-2------2-------------------
E--2-2-2-xx-----------------------------------------

And guitarmaniac17's right, the solo sucks.

0 reply
greendaycool (: wrote on May 20 2006, 01:55 pm

yeah

I want to post or [tab]
guest
You may want to rate the tab now too:
select rating
Please do not post tabs as comments. Select "correction" instead!