Oops, an error
Loading. Please wait.

When I Come Around Tab

version 2
version 2

Video

79,228 views 57 this week
56 commentsread comments
1 2 3 4 5
x 65
add to favorites
launch autoscroll
font size
0
reset
how to read this tab
guitar tuner
Autoscroll
slow
fast
+/-
esc
set tempo
stop
Help us to improve Ultimate-Guitar.com Take our survey!
×
1Group: Green Day
2Song Name: When I Come Around
4Release: ??
4Submitted By: David
5Email: Rem870ExpD@aol.com
6Song Text: When I Come Around
Green Day
Dookie

I've seen so many Wrong versions but this one is correct

[Intro]

e|------------|------------------------------------|
B|------------|------------------------------------|
G|------------|-----6--------8--4--4-4-------------|
D|------4-----|-6-6-6-6-6--8-8--4--4-4-4-4---------|main riff
A|--4-4-4-4-4-|-4-4-4-4-4--6-6--2--2-2-2-2---------|
E|--2-2-2-2-2-|-*-*---*-*--*-----------------------|
   * *   * *

e|--------------------------------------|
B|--------------------------------------|
G|------------------4-4-4-4-4-4-4-4-----|
D|--6-6-6-6-6-6-6-6-4-4-4-4-4-4-4-4-----|
A|--6-6-6-6-6-6-6-6-2-2-2-2-2-2-2-2-----|
E|--4-4-4-4-4-4-4-4---------------------|

e|--------------------------------------|
B|--------------------------------------|
G|------------------4-4-4-4-4-----------|
D|--6-6-6-6-6-6-6-6-4-4-4-4-4-----------|
A|--6-6-6-6-6-6-6-6-2-2-2-2-2--2p1------|
E|--4-4-4-4-4-4-4-4---------------------|

e|------------------------------------------------------|
B|------------------------------------------------------|
G|-11------13------11-----13--11-11--11-11-11-11-13-----|
D|---11--11--11--11--11---11--11-11--11-11-11-11-11-----|
A|------9-------9-------9--9---9--9---9--9--9--9--9-----|
E|------------------------------------------------------|

e|---------------------------------|
B|---------------------------------|
G|-11-11-11-11-13--8-8-8-8/9-10\---|
D|-11-11-11-11-11--8-8-8-8/9-10\---|
A|--9--9--9--9--9------------------|
E|---------------------------------|


************************************

| *  palm mute
| p  Pull-off
| /  Slide up
| \  Slide down

************************************
Suggest correction
comments
print report bad tab
56 comments total. Showing first comments.
0 reply
airhead4855` 0 Dec 22, 2001 12:00 AM

Nice!

0 reply
flea 10 Jan 05, 2002 12:00 AM

I dont no why but it dossen sound right.....but still good job man

0 reply
bustabeat 10 Jan 19, 2002 12:00 AM

You rule m8

guest
You may want to rate the tab now too:
select rating
Wanna post a correction for this tab? Suggest correction