Oops, an error
Loading. Please wait.

When Its Time Chords

133,944 views 555 this week
4 commentsread comments
1 2 3 4 5
excellent!
x 42
add to favorites
launch autoscroll
font size
0
reset
transpose
0
reset
simplify chords
- display chords -
guitar tuner
Tab Pro tools
  • play this tab
  • loop segment
  • change instrument
  • show fretboard
  • metronome
×
Best way to learn
"When Its Time"
Autoscroll
slow
fast
+/-
esc
set tempo
stop
Contributor
When it's time:




G                       D/F#     
Words get trapped in my mind,
              Em               Em/C           C
Sorry I don't take the time to feel the way I do.
           G                          D 
‘Cause the first day you came into my life,
               G              D
The time ticks around you



G                    D/F#
But then I need your voice
              Em             Em/C                   C       
As the key to unlock all the love that's trapped in me
           G         D             G            G7   
So tell me when it's time to say I love you.



C             G                     
All I want is you to understand, that
D                                    G          G    G/A    G/B 
when I take your hand, it's 'cause I want to.
C               G                
We are all born in a world of doubt
               D
But there's no doubt, I figured out

Cadd9  Em7    Asus4
I      love   you.







Guitar solo

   G         D/F#      Em                   C        G         D
e|------------------------------------------------------------------------------------|
B|-/8---------7--------5~-5s7-5~---5-7-5-----------------------5s7-5-----7-5---7------|
G|-----7--------7------------------------7—-7s9-5----/7-4------------7-------7--|
D|--------5-------5--------------------------------5-------5--------------------------| 
A|------------------------------------------------------------------------------------|
E|------------------------------------------------------------------------------------|


   G         D/F#      Em                   C        G         D
e|------------------------------------------------------------------------------------|
B|-/8---------7--------5~-5s7-5~---5-7-5-----------------------5s7-5-----7-5----------|
G|-----7--------7------------------------7—-7s9-5----/7-4------------7-------7\-|
D|--------5-------5--------------------------------5-------5--------------------------| 
A|------------------------------------------------------------------------------------|
E|------------------------------------------------------------------------------------|



C             G                     
All I want is you to understand, that
D                                    G          G    G/A    G/B
When I take your hand, it's 'cause I want to.
C               G                
We are all born in a world of doubt
               D
But there's no doubt, I figured out

Cadd9  Em7    Asus4
I      love   you.



G             D/F#
I feel lonely for
               Em              Em/C             C 
All the losers that will never take the time to say,
         G                    D
What was really on their mind instead
                     G            Dsus4    D
They just hide away
    

G                 D/F#                                             
Yet they'll never have 
                 Em                Em/C           C
Someone like you to guide them and help along the way.
             G         D             G
Or tell them when it's time to say I love you.
           G         D             Cadd9      Em7    Asus4    G
So tell me when it's time to say I love you.


comments
print report bad tab
4 comments total. Showing first comments.
0 reply
062001 wrote on April 14 2014, 02:48 pm

thank you, you really helped me with this tab

0 reply
nyykyle7336 wrote on May 6 2015, 06:00 pm

awesome song, good tab. thanks!

0 reply
Black60Dragon wrote on September 14 2015, 11:25 am

Very good tab. Very helpful

I want to post or [tab]
guest
You may want to rate the tab now too:
select rating
Please do not post tabs as comments. Select "correction" instead!