Oops, an error
Loading. Please wait.

Who Wrote Holden Caulfield Bass Tab

version 2
version 2

Whole song

Interactive

2,828 views 6 this week
2 commentsread comments
1 2 3 4 5
x 6
add to favorites
launch autoscroll
font size
0
reset
guitar tuner
Autoscroll
slow
fast
+/-
esc
set tempo
stop
Help us to improve Ultimate-Guitar.com Take our survey!
×
Author
Tuning
D# G# C# F# A# D#
Well, this is  Who Wrote Holden Caulfield, i worked this out purely by ear, so it
may not be 100% right.
If you have any suggestions send me a comment ;)

Intro

G:-------------------------------------------------------------------------|
D:-------------------------------------------------------------------------|
A:--2s7---7777777777777777555555555555555544444444444444442222222222222222-|
E:-------------------------------------------------------------------------|


Pre-Chorus

G:---------------------------------------------------------------------|
D:---------------------------------------------------------------------|
A:-----------------------------------------------------------------5h7-|
E:--2-2-2222-22-222-5-5-5555-55-555-2-2-2222-22-222-5-5-5555-55-5h7----|

Chorus

G:----------------------------------|
D:----------------------------------|
A:--7-7-77----------5-5-55----------|
E:---------7-77-777--------5-55-555-|

Verse

G:------------------------------------------------------------------|
D:------------------------------------------------------------------|
E:--7777777777777777555555555555555544444444444444442222222222222222|
A:------------------------------------------------------------------|

Solo

G:---------------5------4--------|
D:--------------5------4---------|
A:-----5h7-5-5-5----4-4--2-2-2-2-|
E:--0----------------------------|

Post-Solo Chorus

G:---------------------------------|
D:---------------------------------|
A:--7--------------5-5-55----------|
E:---------7--------------5-55-555-|


Intro
Pre-Chorus
Chorus x4
Verse x2
Pre-Chorus
Chorus x4
Solo x4
Post Solo Chorus x4
Chorus x4
Suggest correction
comments
print report bad tab
2 comments total.
0 reply
chineapple_punk 93 Aug 03, 2009 11:32 AM

Solo is meant to be:

G:---------------7------6--------|
D:--------------7------6---------|
A:-----5h7-5-5-5----4-4--2-2-2-2-|
E:--0----------------------------|

0 reply
druppert3432 10 Jun 21, 2012 11:52 AM

Your a half step sharp throughout the song. The tuning should be Eb, Ab, Db, and Gb.

guest
You may want to rate the tab now too:
select rating
Wanna post a correction for this tab? Suggest correction