Oops, an error
Loading. Please wait.

Who Wrote Holden Caulfield Tab

version 3
version 3

Whole song

Interactive

1,702 views 1 this week
no commentswrite comment
1 2 3 4 5
please rate
add to favorites
launch autoscroll
font size
0
reset
how to read this tab
guitar tuner
Tab Pro tools
  • play this tab
  • loop segment
  • change instrument
  • show fretboard
  • metronome
×
Best way to learn
"Who Wrote Holden Caulfield"
Autoscroll
slow
fast
+/-
esc
set tempo
stop
Contributor
Difficulty
novice
I noticed a bit wrong with the only other good tab on here so I decided to write 
my own.  Here you go..

Key:
pm.(.) - palm mute
~~~ - let ring
> - Accent

Gtr. I
Verse:
              E5                D5              Cb5
e-------------------------------------------------------|
b-------------------------------------------------------|
g---88-8-88-8-88-8-88-8-66-6-66-6-66-6-66-6-55-5-55-5---|
D---88-8-88-8-88-8-88-8-66-6-66-6-66-6-66-6-55-5-55-5---|
A---66-6-66-6-66-6-66-6-44-4-44-4-44-4-44-4-33-3-33-3---|
E-------------------------------------------------------|
pm....   ..   ..   ..   ..   ..   ..   ..   ..   ..   ..|

        Cb5           B5
e-----------------------------------|
b-----------------------------------|
g---55-5-55-5-33-3-33-3-33-3-33-3---|
D---55-5-55-5-33-3-33-3-33-3-33-3---|(x1)
A---33-3-33-3-11-1-11-1-11-1-11-1---|
E-----------------------------------|
pm....   ..   ..   ..   ..   ..   ..|

Gtr. II
Beginning of Second Verse Rep:
    E5
e-----------------------------------|
b-----------------------------------|
g---8~~~~~~~~~~~~~~~~~~~~~~~~~~~~---|
D---8~~~~~~~~~~~~~~~~~~~~~~~~~~~~---|
A---6~~~~~~~~~~~~~~~~~~~~~~~~~~~~---|
E-----------------------------------|

Gtr. I
verse x3

Gtr. II
End of Fourth Verse Rep:
             B5
e-------------------------|
b-------------------------|
g---33-3-33-3-33-3-33-3---|
D---33-3-33-3-33-3-33-3---|
A---11-1-11-1-11-1-11-1---|
E-------------------------|
pm.... > .. > .. > .. > ..|

Gtr. I and II
Pre-Chorus:
         Gb5              A5
e-------------------------------------|
b-------------------------------------|
g-------------------------------------|
D---3-3-3-3-3-3-3-3-6-6-6-6-6-6-6-6---|(x2)
A---3-3-3-3-3-3-3-3-6-6-6-6-6-6-6-6---|
E---1-1-1-1-1-1-1-1-4-4-4-4-4-4-4-4---|

Chorus:
        E5          B5         D5           A5
e-----------------------------------------------------|
b-----------------------------------------------------|
g---8-8-8-8-8-8-------------6-6-6-6-6-6---------------|
D---8-8-8-8-8-8-8-8-8-8-8-8-6-6-6-6-6-6-6-6-6-6-6-6---|(x4)
A---6-6-6-6-6-6-8-8-8-8-8-8-4-4-4-4-4-4-6-6-6-6-6-6---|
E---------------6-6-6-6-6-6-------------4-4-4-4-4-4---|

Gtr. I
verse x2

Gtr. II
Verse Fill:

e---8---------|
b-----8-------|
g--------6b---|
D-------------|
A-------------|
E-------------|

Gtr. I 
verse x2

Pre-Chorus x2

Chrorus x4

Interlude:
     E5     D5     Cb5    B5
e--------------------------------|
b--------------------------------|
g---888-8--666-6--555-5--333-3---|
D---888-8--666-6--555-5--333-3---|(x2)
A---666-6--444-4--333-3--111-1---|
E--------------------------------|
        >      >      >      >   |

e--------------------------------------------|
b--------------------------------------------|
g---999-9--111111-11--131313-13--151515-15---|
D---999-9--x-x-x--x---x-x-x--x---x-x-x--x----|
A---777-7--9-9-9--9---111111-11--131313-13---|
E--------------------------------------------|
pm..... >  .....  >   ......  >   .....  >  .|

Pre-Chorus x2

Chorus Fill:
    E5    B5     D5     A5
e--------------------------------------------|
b--------------------------------------------|
g---8-------------6-6-6-6-6-6----------------|
D---8------8------6-6-6-6-6-6-6-6-6-6-6-6----|(x2)
A---6------8------4-4-4-4-4-4-6-6-6-6-6-6----|
E----------6------------------4-4-4-4-4-4----|
    >      >      >           >              |

Chorus x6

End On:

e-------|
b-------|
g---8---|
D---8---|
A---6---|
E-------|
    >   |

comments
We did not receive enough feedback on this tab! Please rate:
print report bad tab
1 2 3 4 5
I want to post or [tab]
guest
You may want to rate the tab now too:
select rating
Please do not post tabs as comments. Select "correction" instead!