Oops, an error
Loading. Please wait.

Who Wrote Holden Caulfield Tab

version 5
version 5

Whole song

Interactive

1,503 views 1 this week
1 commentread comment
1 2 3 4 5
3 more votes to show rating
add to favorites
launch autoscroll
font size
0
reset
how to read this tab
guitar tuner
Autoscroll
slow
fast
+/-
esc
set tempo
stop
Help us to improve Ultimate-Guitar.com Take our survey!
×
Author
Tuning
D# G# C# F# A# D#
song: "Who Wrote Holden Caulfield"
artist: Green Day
album: Kerplunk! (1992)
tuning: Half-Step Down (Eb, Ab, Db, Gb, Bb, eb)

Guitar tab by Clarfs, email: josh-41@hotmail.co.uk

---

Verse 1:

"A though burst in my head..."
eb|---------------------------------------------------------------------------------|
Bb|---------------------------------------------------------------------------------|
Gb|-99-9-99-9-99-9-99-9-77-7-77-7-77-7-77-7-66-6-66-6-66-6-66-6-44-4-44-4-44-4-44-4-|
Db|-99-9-99-9-99-9-99-9-77-7-77-7-77-7-77-7-66-6-66-6-66-6-66-6-44-4-44-4-44-4-44-4-|
Ab|-77-7-77-7-77-7-77-7-55-5-55-5-55-5-55-5-44-4-44-4-44-4-44-4-22-2-22-2-22-2-22-2-|
Eb|---------------------------------------------------------------------------------|
pm  ** * ** * ** * ** * ** * ** * ** * ** * ** * ** * ** * ** * ** * ** * ** * ** *

"Was it just a dream..."
eb|---------------------------------------------------------------------------------|
Bb|---------------------------------------------------------------------------------|
Gb|-99-9-99-9-99-9-99-9-77-7-77-7-77-7-77-7-66-6-66-6-66-6-66-6-4444-4444-4444-4444-|
Db|-99-9-99-9-99-9-99-9-77-7-77-7-77-7-77-7-66-6-66-6-66-6-66-6-4444-4444-4444-4444-|
Ab|-77-7-77-7-77-7-77-7-55-5-55-5-55-5-55-5-44-4-44-4-44-4-44-4-2222-2222-2222-2222-|
Eb|---------------------------------------------------------------------------------|
pm  ** * ** * ** * ** * ** * ** * ** * ** * ** * ** * ** * ** *


Pre-chorus:


"Well it hasn't been the first time..."
eb|-------------------------------------------------------------------|
Bb|-------------------------------------------------------------------|
Gb|------------------2-2-2222-22-222------------------2-2-2222-22-222-|
Db|-4-4-4444-44-4444-2-2-2222-22-222-4-4-4444-44-4444-2-2-2222-22-222-|
Ab|-4-4-4444-44-4444-0-0-0000-00-000-4-4-4444-44-4444-0-0-0000-00-000-|
Eb|-2-2-2222-22-2222-----------------2-2-2222-22-2222-----------------|


Chorus:

"There's a boy who fogs his world..."
eb|-0-------------|
Bb|-0-------3---2-|
Gb|-1---4---2---2-|
Db|-2---4---0---2-|
Ab|-2---2-------0-|
Eb|-0-------------| x 4

Verse 2:

"I Shuffle through my mind..."
eb|------------------------------------------------------------------------------------12-------|
Bb|---------------------------------------------------------------------------------------12----|
Gb|-99-9-99-9-99-9-99-9-77-7-77-7-77-7-77-7-66-6-66-6-66-6-66-6-44-4-44-4-44-4-44-4-------------|
Db|-99-9-99-9-99-9-99-9-77-7-77-7-77-7-77-7-66-6-66-6-66-6-66-6-44-4-44-4-44-4-44-4-------------|
Ab|-77-7-77-7-77-7-77-7-55-5-55-5-55-5-55-5-44-4-44-4-44-4-44-4-22-2-22-2-22-2-22-2-------------|
Eb|---------------------------------------------------------------------------------------------| 
pm  ** * ** * ** * ** * ** * ** * ** * ** * ** * ** * ** * ** * ** * ** * ** * ** *

"Was it just a dream..."
eb|---------------------------------------------------------------------------------|
Bb|---------------------------------------------------------------------------------|
Gb|-99-9-99-9-99-9-99-9-77-7-77-7-77-7-77-7-6666-6666-6666-6666-4444-4444-4444-4444-|
Db|-99-9-99-9-99-9-99-9-77-7-77-7-77-7-77-7-6666-6666-6666-6666-4444-4444-4444-4444-|
Ab|-77-7-77-7-77-7-77-7-55-5-55-5-55-5-55-5-4444-4444-4444-4444-2222-2222-2222-2222-|
Eb|---------------------------------------------------------------------------------| 
pm  ** * ** * ** * ** * ** * ** * ** * ** *

Pre-chorus:

"Well it hasn't been the first time..."
eb|-------------------------------------------------------------------|
Bb|-------------------------------------------------------------------|
Gb|------------------2-2-2222-22-222------------------2-2-2222-22-222-|
Db|-4-4-4444-44-4444-2-2-2222-22-222-4-4-4444-44-4444-2-2-2222-22-222-|
Ab|-4-4-4444-44-4444-0-0-0000-00-000-4-4-4444-44-4444-0-0-0000-00-000-|
Eb|-2-2-2222-22-2222-----------------2-2-2222-22-2222-----------------|

Chorus:

"There's a boy who fogs his world..."
eb|-0-------------|
Bb|-0-------3---2-|
Gb|-1---4---2---2-|
Db|-2---4---0---2-|
Ab|-2---2-------0-|
Eb|-0-------------| x 4

Bridge:

eb|-------------------------|
Bb|-------------------------|
Gb|---999-7-777-6-666-4-444-|
Db|-2-999-7-777-6-666-4-444-|
Ab|-2-777-5-555-4-444-2-222-|
Eb|-0-----------------------| x 4

eb|-------------------------------------------------------------------|
Bb|-------------------------------------------------------------------|
Gb|------------------2-2-2222-22-222------------------2-2-2222-22-222-|
Db|-4-4-4444-44-4444-2-2-2222-22-222-4-4-4444-44-4444-2-2-2222-22-222-|
Ab|-4-4-4444-44-4444-0-0-0000-00-000-4-4-4444-44-4444-0-0-0000-00-000-|
Eb|-2-2-2222-22-2222-----------------2-2-2222-22-2222-----------------|

Chrous: (x2)

"There's a boy who fogs his world..."
eb|-0-------------|
Bb|-0-------3---2-|
Gb|-1---4---2---2-|
Db|-2---4---0---2-|
Ab|-2---2-------0-|
Eb|-0-------------| x 4

End on:

eb|-0-|
Bb|-0-|
Gb|-1-|
Db|-2-|
Ab|-2-|
Eb|-0-|

---

Lyrics:

Verse 1:
-
A thought burst in my head and I need to tell you
It's news that I for thought
Was it just a dream that happened long ago?
I think that I just forgot

Pre-chorus:
-
Well it hasn't been the first time
And it sure does drive me mad

Chorus:
There's a boy who fogs his world and now he's getting lazy
There's no motivation and frustration makes him crazy
He makes a plan to take a stand but always ends up sitting.
Someone help him up or he's gonna end up quitting

Verse 2:
-
I shuffle through my mind
To see if I can find
The words I left behind
Was it just a dream that happened long ago?
Oh well...
Never mind.

Pre-chorus:
-
Well it hasn't been the first time
And it sure does drive me mad

Chorus:
-
There's a boy who fogs his world and now he's getting lazy
There's no motivation and frustration makes him crazy
He makes a plan to take a stand but always ends up sitting.
Someone help him up or he's gonna end up quitting

There's a boy who fogs his world and now he's getting lazy
There's no motivation and frustration makes him crazy
He makes a plan to take a stand but always ends up sitting.
Someone help him up or he's gonna end up quitting

There's a boy who fogs his world and now he's getting lazy
There's no motivation and frustration makes him crazy
He makes a plan to take a stand but always ends up sitting.
Someone help him up or he's gonna end up quitting 

Suggest correction
Give kudos to tab author, rate the tab!
1 2 3 4 5
comments
print report bad tab
1 comment total.
0 reply
GreenDayDookie 10 May 22, 2013 06:54 PM

Pre chorus is wrong:
---------------
---------------
---------------
3333333-6666666
3333333-6666666
1111111-4444444

guest
You may want to rate the tab now too:
select rating
Wanna post a correction for this tab? Suggest correction