Oops, an error
Loading. Please wait.

Wow Thats Loud Tab

version 1
version 1

Intro

Whole song

Interactive

3,139 views 1 this week
2 commentsread comments
1 2 3 4 5
accurate
x 4
add to favorites
launch autoscroll
font size
0
reset
how to read this tab
guitar tuner
Autoscroll
slow
fast
+/-
esc
set tempo
stop
Help us to improve Ultimate-Guitar.com Take our survey!
×
Contributor
Difficulty
mattys501 334
intermediate
Wow That’s Loud by Green Day Intro

E|------------------9--9-12-11-9-------------|-------|
B|------9-11--12------------------12-11------|--11b--|
G|--11---------------------------------------|-------|
D|-------------------------------------------|-------|
A|-------------------------------------------|-------|
E|-------------------------------------------|-------|

Enjoy :)
comments
print report bad tab
2 comments total.
+1 reply
Airbourne775 680 wrote on November 7 2012, 02:23 pm

I think you should add another 11 and 12 into that, otherwise it's perfect. Like this:

E|------------------9--9-12-11-12-11-9--------------|-------|
B|------9-11--12------------------------12-11-------|--11b--|
G|--11----------------------------------------------|-------|
D|--------------------------------------------------|-------|
A|--------------------------------------------------|-------|
E|--------------------------------------------------|-------|

0 reply
mathoek 40 wrote on April 28 2013, 03:19 pm

I agree with airbourne

I want to post or [tab]
guest
You may want to rate the tab now too:
select rating
Please do not post tabs as comments. Select "correction" instead!