Oops, an error
Loading. Please wait.

Wow Thats Loud Tab

version 1
version 1

Intro

Whole song

Interactive

19,284 views 39 this week
3 commentsread comments
1 2 3 4 5
accurate
x 5
add to favorites
launch autoscroll
font size
0
reset
how to read this tab
guitar tuner
Tab Pro tools
  • play this tab
  • loop segment
  • change instrument
  • show fretboard
  • metronome
Autoscroll
slow
fast
+/-
esc
set tempo
stop
Contributor
Difficulty
novice
Wow! That's Loud
Green Day- DOS
Release Date: 11/13/12
nolen.drew@yahoo.com

I'll add the solo eventually

Intro

e--------7-9-11-12-11-12-11-9-7-----|
b----9-11----------------------11~--|
g-11--------------------------------|
d-----------------------------------|
a-----------------------------------|
E-----------------------------------|

e---------------------------------|
b---------------------------------|
g---------------------------------|
d-4-4-4-4-4-4-4-4-4-4-4-4-4-4-4-4-|
a-4-4-4-4-4-4-4-4-4-4-4-4-4-4-4-4-|
E-2-2-2-2-2-2-2-2-2-2-2-2-2-2-2-2-|

Verse 1

e--------------------------------|
b--------------------------------|
g-------------4------------------|
d-4-----------4-(x16)---4--------|
a-4-(x32)-----2---------4-(x16)--|
E-2---------------------2--------|

Prechorus

e-----------------------------------------------------------------|
b-----------------------------------------------------------------|
g-----------------------------------------------------------------|
d-7-7-7-7-7-7-7-7-4-4-4-4-4-4-4-4-7-7-7-7-7-7-7-7-4-4-4-4-4-4-4-4-|
a-7-7-7-7-7-7-7-7-4-4-4-4-4-4-4-4-7-7-7-7-7-7-7-7-4-4-4-4-4-4-4-4-|
E-5-5-5-5-5-5-5-5-2-2-2-2-2-2-2-2-5-5-5-5-5-5-5-5-2-2-2-2-2-2-2-2-|

Chorus

e------------------------------------------------------------------|
b------------------------------------------------------------------|
g-4-4-4-4-4-4-4-4-4-4-4-4-4-4/5-5/6-6-6-6-6-6-6-6-6-6-6-6-6-6-6-6--|
d-4-4-4-4-4-4-4-4-4-4-4-4-4-4/5-5/6-6-6-6-6-6-6-6-6-6-6-6-6-6-6-6--|
a-2-2-2-2-2-2-2-2-2-2-2-2-2-2/3-3/4-4-4-4-4-4-4-4-4-4-4-4-4-4-4-4--|
E------------------------------------------------------------------|


Preverse

e--------7-9-11-12-11-12-11-9-7-----|
b----9-11----------------------11~--|
g-11--------------------------------|
d-----------------------------------|
a-----------------------------------|
E-----------------------------------|

Verse 2

e--------------------------------|
b--------------------------------|
g-------------4------------------|
d-4-----------4-(x16)---4--------|
a-4-(x32)-----2---------4-(x16)--|
E-2---------------------2--------|


Prechorus

e-----------------------------------------------------------------|
b-----------------------------------------------------------------|
g-----------------------------------------------------------------|
d-7-7-7-7-7-7-7-7-4-4-4-4-4-4-4-4-7-7-7-7-7-7-7-7-4-4-4-4-4-4-4-4-|
a-7-7-7-7-7-7-7-7-4-4-4-4-4-4-4-4-7-7-7-7-7-7-7-7-4-4-4-4-4-4-4-4-|
E-5-5-5-5-5-5-5-5-2-2-2-2-2-2-2-2-5-5-5-5-5-5-5-5-2-2-2-2-2-2-2-2-|

Chorus

e------------------------------------------------------------------|
b------------------------------------------------------------------|
g-4-4-4-4-4-4-4-4-4-4-4-4-4-4/5-5/6-6-6-6-6-6-6-6-6-6-6-6-6-6-6-6--|
d-4-4-4-4-4-4-4-4-4-4-4-4-4-4/5-5/6-6-6-6-6-6-6-6-6-6-6-6-6-6-6-6--|
a-2-2-2-2-2-2-2-2-2-2-2-2-2-2/3-3/4-4-4-4-4-4-4-4-4-4-4-4-4-4-4-4--|
E------------------------------------------------------------------|

Presolo

Guitar One:
e--------7-9-11-12-11-12-11-9-7-----|
b----9-11----------------------11~--|
g-11--------------------------------|
d-----------------------------------|(x3)
a-----------------------------------|
E-----------------------------------|

Guitar Two (Starts at 1:32)
e-----------------------------------|
b-----------------------------------|
g-----------------------------------|
d-4---------------------------------|
a-4-(x32)---------------------------|
E-2---------------------------------|

Solo:
e-------------------------------------------------------------|
b-------------------------------------------------------------|
g-4-4-4-4-4-4-4-4-4-4-4-4-4-4---------------------------------|
d-4-4-4-4-4-4-4-4-4-4-4-4-4-4-4-4-4-4-4-4-4-4-4-4-4-4-4-4-4-4-|
a-2-2-2-2-2-2-2-2-2-2-2-2-2-2-4-4-4-4-4-4-4-4-4-4-4-4-4-4-4-4-|
E-----------------------------2-2-2-2-2-2-2-2-2-2-2-2-2-2-2-2-|

e-------------------------------------------------------------------|
b-------------------------------------------------------------------|
g-4-4-4-4-4-4-4-4-4-4-4-4-4-4/5-5/6-6-6-6-6-6-6-6-6-6-6-6-6-6-6-6---|
d-4-4-4-4-4-4-4-4-4-4-4-4-4-4/5-5/6-6-6-6-6-6-6-6-6-6-6-6-6-6-6-6---|
a-2-2-2-2-2-2-2-2-2-2-2-2-2-2/3-3/4-4-4-4-4-4-4-4-4-4-4-4-4-4-4-4---|
E-------------------------------------------------------------------|

e--------------------------------------------------------------------|
b--------------------------------------------------------------------|
g--------------------------------------------------------------------|
d-4------------------------------------------------------------------|
a-4------------------------------------------------------------------|
E-2-2~~~~--------------------7/6/7/9~~~/12~~/7~~~/9~/12~~12~~12~~7~~-|

Verse 3
e-/---/---/---/-------------------------------------------/---/---/---/
b-/---/---/---/-------------------------------------------/---/---/---/
g-/---/---/---/-------------------------------------------/---/---/---/
d-/---/---/---/-------------------------------------------/---/---/---/
a-/---/---/---/-------------------------------------------/---/---/---/
E-/---/---/---/---2~~~~~~~~~~~~~~~~~/7~~~~~~~~~~~/2~~~~~~-/---/---/---/
   slide                                                      slide

Prechorus


e-----------------------------------------------------------------|
b-----------------------------------------------------------------|
g-----------------------------------------------------------------|
d-7-7-7-7-7-7-7-7-4-4-4-4-4-4-4-4-7-7-7-7-7-7-7-7-4-4-4-4-4-4-4-4-|
a-7-7-7-7-7-7-7-7-4-4-4-4-4-4-4-4-7-7-7-7-7-7-7-7-4-4-4-4-4-4-4-4-|
E-5-5-5-5-5-5-5-5-2-2-2-2-2-2-2-2-5-5-5-5-5-5-5-5-2-2-2-2-2-2-2-2-|

Chorus

e------------------------------------------------------------------|
b------------------------------------------------------------------|
g-4-4-4-4-4-4-4-4-4-4-4-4-4-4/5-5/6-6-6-6-6-6-6-6-6-6-6-6-6-6-6-6--|
d-4-4-4-4-4-4-4-4-4-4-4-4-4-4/5-5/6-6-6-6-6-6-6-6-6-6-6-6-6-6-6-6--|
a-2-2-2-2-2-2-2-2-2-2-2-2-2-2/3-3/4-4-4-4-4-4-4-4-4-4-4-4-4-4-4-4--|
E------------------------------------------------------------------|

Extended Ending

e--------7-9-11-12-11-12-11-9-7-----|
b----9-11----------------------11~--|
g-11--------------------------------|
d-----------------------------------|
a-----------------------------------|
E-----------------------------------|


e---------------------------------|
b---------------------------------|
g---------------------------------|
d-4-4-4-4-4-4-4-4-4-4-4-4-4-4-4-4-|
a-4-4-4-4-4-4-4-4-4-4-4-4-4-4-4-4-|
E-2-2-2-2-2-2-2-2-2-2-2-2-2-2-2-2-|

Repeat till the ending :)
comments
print report bad tab
3 comments total.
0 reply
jpage0925 wrote on December 15 2012, 02:07 pm

I would play the intro like this:
e-----------------11-12-11-12-11------------|
b--------11-12-14----------------14-12-11~--|
g--11-13------------------------------------|
d-------------------------------------------|
a-------------------------------------------|
E-------------------------------------------|
Just so you don't have to move around.

0 reply
jiligier wrote on August 9 2013, 06:17 pm

or you can also play it like

e--------------9--11-12-11-12-11-9----------|
b------9-11-12---------------------12-11~---|
g--11---------------------------------------|
d-------------------------------------------|
a-------------------------------------------|
E-------------------------------------------|

0 reply
ryan28992899 wrote on November 11 2014, 08:13 pm

I want to post or [tab]
guest
You may want to rate the tab now too:
select rating
Please do not post tabs as comments. Select "correction" instead!