Oops, an error
Loading. Please wait.

Wow Thats Loud bass

version 2
version 2

Whole song

Interactive

477 views 1 this week
1 commentread comment
1 2 3 4 5
1 last vote to show rating
add to favorites
×
Save as Personal and add changes to this tab that will be seen only by you. Learn more ›
×
You can save this tab as Personal to edit and correct it or add notes. All changes will be seen only by you. Learn more »
launch autoscroll
font size
0
reset
guitar tuner
edit
Autoscroll
slow
fast
+/-
esc
set tempo
stop
Author
Difficulty
Green Day-Wow! That's Loud

Intro 0:04
G|------------------|
D|-4444444444444444-|
A|------------------|
E|------------------|

Verse 1
G|---------------------------------------|
D|-444444444444444-244444444444444-2-1---|
A|-------------------------------------4-|
E|---------------------------------------|

G|-------------------------------------|
D|------------------2-4444444444444444-|
A|-222222222222222-4-------------------|
E|-------------------------------------|

Pre-Chorus
G|----------------------|
D|----------44-22-------|
A|----------------44-22-|
E|-55555555-------------|

Chorus
G|------------------------------------|
D|------------------------------------|
A|-22222222222222-33-4444444444444444-|
E|------------------------------------|

Interlude
G|-------------------------------------|
D|-44444444444444444444444444444-2-1---|
A|-----------------------------------4-|
E|-------------------------------------|

Solo
G|-----------------------------------------------|
D|-------------------22-444444-2-4-2-44444-2-1---|
A|-2222222-02222222-4--------------------------4-|
E|-----------------------------------------------|

G|----------------------------66666666-|
D|-------------------------------------|
A|-22222222222222-33-44444444----------|
E|-------------------------------------|

Bridge
G|------------------------|
D|-4--4--4--4--4--4---242-|
A|-------------------4----|
E|------------------------|

Verse 2
G|------------------------------------------------|
D|-4~-----242-4~----44-----------4-----2-4—444444-|
A|-------4-------------2~--1-2~----2-4------------|
E|------------------------------------------------|

Outro
G|-------------------------------------|
D|-44444444444444444444444444444-2-1---|
A|-----------------------------------4-|
E|-------------------------------------|

G|-------------------------------------|
D|-44444444444444444444444444444-2-1---|
A|-----------------------------------4-|
E|-------------------------------------|

Continue this part till the end of the song
G|---------------------|
D|-44444444444444--242-|
A|----------------4----|
E|---------------------|



Intro x1
Verse 1 x1
Pre-Chorus x2
Chorus x1
Verse 1 x1
Pre-Chorus x2
Chorus x1
Interlude x1
Solo x1
Bridge x8
Verse 2 x1
Pre-Chorus x2
Chorus x1
Outro x1

            
            
Suggest correction
Creating personal tab
Creating personal tab
You can edit any tab online and save it as your Personal.

You can edit, replace or remove any tab part or add personal notes – all changes will be seen only by you.

Personal tabs can be accessed anytime from any device, even offline.
Learn more »
Give kudos to tab author, rate the tab!
1 2 3 4 5
comments
print report bad tab
1 comment total.
0 reply
Mazr3y 199 Oct 04, 2013 01:37 PM

I can't play this bass tab loud enough!!!!!!!!

guest
You may want to rate the tab now too:
select rating
Wanna post a correction for this tab? Suggest correction