Oops, an error
Loading. Please wait.

Wow Thats Loud Tab

version 2
version 2

Whole song

Interactive

6,025 views 9 this week
3 commentsread comments
1 2 3 4 5
excellent!
x 6
add to favorites
launch autoscroll
font size
0
reset
how to read this tab
guitar tuner
Autoscroll
slow
fast
+/-
esc
set tempo
stop
Help us to improve Ultimate-Guitar.com Take our survey!
×
Author
Difficulty
intermediate
Artist: Green Day
Album: ¡DOS!
Song: Wow! That's Loud
Instrument: Guitar
Submitter: GuitarPunk94

Feel free to rate + comment! Join the GreenDayCommunity(GDC) :-)

Standard Tuning


Key:
-  - Nothing
~  - Let notes ring
16b- Bend string to fret
x  - Mute strings
p  - Pull off
/ - Slide up or down




 Intro:
|---------7-9~-11-12~-11-12-11-9-7----|
|----9-11~------------------------11~-|
|-11~---------------------------------|
|-------------------------------------|
|-------------------------------------|
|-------------------------------------|

 Verse 1:
    |3x*************|  |2x*************|  |2x*************|
|-----------------------------------------------------------|
|-----------------------------------------------------------|
|----------------------4-4-4-4-4-4-4-4-x--------------------|
|-2-4-4-4-4-4-4-4-4-x--4-4-4-4-4-4-4-4-x--4-4-4-4-4-4-4-4-x-|
|-2-4-4-4-4-4-4-4-4-x--2-2-2-2-2-2-2-2-0--4-4-4-4-4-4-4-4-x-|
|-0-2-2-2-2-2-2-2-2-0---------------------2-2-2-2-2-2-2-2-0-|

 Pre-Chorus:
|-----------------------------------------------------------------|
|-----------------------------------------------------------------|
|-2-2-2-2-2-2-2-2-----------------2-2-2-2-2-2-2-2-----------------|
|-2-2-2-2-2-2-2-2-4-4-4-4-4-4-4-4-2-2-2-2-2-2-2-2-4-4-4-4-4-4-4-4-|
|-0-0-0-0-0-0-0-0-4-4-4-4-4-4-4-4-0-0-0-0-0-0-0-0-4-4-4-4-4-4-4-4-|
|-----------------2-2-2-2-2-2-2-2-----------------2-2-2-2-2-2-2-2-|

 Chorus:
|---------------------|
|---------------------|
|-4-4-4-4-5-5-6-6-6-6-|
|-4-4-4-4-5-5-6-6-6-6-|
|-2-2-2-2-3-3-4-4-4-4-|
|---------------------|

|---------7-9~-11-12~-11-12-11-9-7----|
|----9-11~------------------------11~-|
|-11~---------------------------------|
|-------------------------------------|
|-------------------------------------|
|-------------------------------------|

 Verse 2:
    |2x*************|  |2x*************|  |2x*************|
|-----------------------------------------------------------|
|-----------------------------------------------------------|
|----------------------4-4-4-4-4-4-4-4-x--------------------|
|-2-4-4-4-4-4-4-4-4-x--4-4-4-4-4-4-4-4-x--4-4-4-4-4-4-4-4-x-|
|-2-4-4-4-4-4-4-4-4-x--2-2-2-2-2-2-2-2-0--4-4-4-4-4-4-4-4-x-|
|-0-2-2-2-2-2-2-2-2-0---------------------2-2-2-2-2-2-2-2-0-|

 Pre-Chorus:
|-----------------------------------------------------------------|
|-----------------------------------------------------------------|
|-2-2-2-2-2-2-2-2-----------------2-2-2-2-2-2-2-2-----------------|
|-2-2-2-2-2-2-2-2-4-4-4-4-4-4-4-4-2-2-2-2-2-2-2-2-4-4-4-4-4-4-4-4-|
|-0-0-0-0-0-0-0-0-4-4-4-4-4-4-4-4-0-0-0-0-0-0-0-0-4-4-4-4-4-4-4-4-|
|-----------------2-2-2-2-2-2-2-2-----------------2-2-2-2-2-2-2-2-|

 Chorus:
|---------------------|
|---------------------|
|-4-4-4-4-5-5-6-6-6-6-|
|-4-4-4-4-5-5-6-6-6-6-|
|-2-2-2-2-3-3-4-4-4-4-|
|---------------------|
 
 Bridge/Solo:
  |3x*******************************|
|---------7-9~-11-12~-11-12-11-9-7----|
|----9-11~------------------------11~-|
|-11~---------------------------------|
|-------------------------------------|
|-------------------------------------|
|-------------------------------------|

|--------------------------------------|
|-14-----------------14-----14----14---|
|-16b-16~16~-16~-16~-16b-16~--16~-16b\-|
|--------------------------------------|
|--------------------------------------|
|--------------------------------------|

|---------7-9~-11-12~-11-12-11-9-7----|
|----9-11~------------------------11~-|
|-11~---------------------------------|
|-------------------------------------|
|-------------------------------------|
|-------------------------------------|

 Guitar 1 - Solo (*i'll try to add the solo later*)
|---------------------------------------------------|
|---------------------------------------------------|
|---------------------------------------------------|
|---------------------------------------------------|
|---------------------------------------------------|
|---------------------------------------------------|

 Guitar 2
|---------------------|
|---------------------|
|-4-4-4-4-5-5-6-6-6-6-|
|-4-4-4-4-5-5-6-6-6-6-|
|-2-2-2-2-3-3-4-4-4-4-|
|---------------------|

 Guitar 1    *(2:18min.)
|--------------------------------------------------------------|
|--------------------------------------------------------------|
|--------------------------------------------------------------|
|-4------------------------------------------------------------|
|-4------------------------------------------------------------|
|-2~2~-------/7\6~/7~/9~-/12~-\6~-/9~-/12~-12~-12~-12~-12~-\6~-|

          Verse 3:
                 *(2:46)    *(2:51)
|------------------------------------------|
|------------------------------------------|
|------------------------------------------|
|------------------------------------------|
|------------------------------------------|
|-\-\-\-\-2~-2~--/7~---7/9\-2~-----\-\-\-\-|

 Pre-Chorus:
|-----------------------------------------------------------------|
|-----------------------------------------------------------------|
|-2-2-2-2-2-2-2-2-----------------2-2-2-2-2-2-2-2-----------------|
|-2-2-2-2-2-2-2-2-4-4-4-4-4-4-4-4-2-2-2-2-2-2-2-2-4-4-4-4-4-4-4-4-|
|-0-0-0-0-0-0-0-0-4-4-4-4-4-4-4-4-0-0-0-0-0-0-0-0-4-4-4-4-4-4-4-4-|
|-----------------2-2-2-2-2-2-2-2-----------------2-2-2-2-2-2-2-2-|

 Chorus:
|---------------------------------|
|-7--7--7--7-8---9---9---9---9----|
|-9b-9b-9b-9b10b-11b-11b-11b-11b\-|
|---------------------------------|
|---------------------------------|
|---------------------------------|
 
 Outro:
  |4x*******************************|
|---------7-9~-11-12~-11-12-11-9-7----|
|----9-11~------------------------11~-|
|-11~---------------------------------|
|-------------------------------------|
|-------------------------------------|
|-------------------------------------|

                      *(3:42)
|------------------------------------|
|-2--2--2--2--2--2----11-9-11-9-11-9-|
|-4b-4b-4b-4b-4b-4b---x--x-x--x-x--x-|
|---------------------8--6-8--6-8--6-|
|------------------------------------|
|------------------------------------|

  *(3:49) *(3:53)
|----------------------------------|
|----------------------------------|
|----------------------------------|
|-4-------4------------------------|
|-4-------4------------------------|
|-2-2~----2-2~~~~~2b~~~~2~~~~2b~~~-|
Suggest correction
comments
print report bad tab
3 comments total.
0 reply
domcraftpl 10 wrote on December 21 2013, 03:46 am

The tabs are great but instead of:

Intro:
|---------7-9~-11-12~-11-12-11-9-7----|
|----9-11~------------------------11~-|
|-11~---------------------------------|
|-------------------------------------|
|-------------------------------------|
|-------------------------------------|

Ithink that this:

Intro:
|---------7-9~-11-12~-11-12-11-9-7--6~-|
|----9-11~-----------------------------|
|-11~----------------------------------|
|--------------------------------------|
|--------------------------------------|
|--------------------------------------|

woul be easier. But apart from that its perfect ;)

0 reply
GuitarKing12590 10 wrote on February 6 2015, 02:27 pm

There Tab Is Better To Play The 11 Fret

0 reply
AlterCreed95 128 wrote on September 20 2015, 12:30 pm

I prefer to play the Intro Riff this way:

|-------------9~-11-12~-11-12-11-9--------|
|----9-11~-12----------------------12-11~-|
|-11~-------------------------------------|
|-----------------------------------------|
|-----------------------------------------|
|-----------------------------------------|

I find easier to play like that because it's closer to the scale shape:

|------------9-11-12-|
|----9-11-12---------|
|-11-----------------|
|--------------------|
|--------------------|
|--------------------|

guest
You may want to rate the tab now too:
select rating
Please do not post tabs as comments. Select "correction" instead!