Oops, an error
Loading. Please wait.
We have an official X-Kid tab made by UG professional guitarists. Check out the tab »
×

X-Kid tab

130 views 1 this week
no commentswrite comment
1 2 3 4 5
3 more votes to show rating
add to favorites
×
Save as Personal and add changes to this tab that will be seen only by you. Learn more ›
×
You can save this tab as Personal to edit and correct it or add notes. All changes will be seen only by you. Learn more »
launch autoscroll
font size
0
reset
how to read this tab
guitar tuner
edit
Autoscroll
slow
fast
+/-
esc
set tempo
stop
About this tab version
None of the other versions are right. Was this info helpful? Yes No
X KID

e|----------------------------------------------------------------|
B|-----------------------------------------------2--X--2-2--X-----|
G|--9--X--9-9--X---6--X--6-6--X---4--X--4-4--X---2--X--2-2--X-----|
D|--9--X--9-9--X---6--X--6-6--X---4--X--4-4--X---2--X--2-2--X-----|
A|--7--X--7-7--X---4--X--4-4--X---2--X--2-2--X--------------------|
E|----------------------------------------------------------------|

e|----------------------------------------------------------------|
B|-----------------------------------------------2--X--2-2--X-----|
G|--9--X--9-9--X---6--X--6-6--X---4--X--4-4--X---2--X--2-2--X-----|
D|--9--X--9-9--X---6--X--6-6--X---4--X--4-4--X---2--X--2-2--X-----|
A|--7--X--7-7--X---4--X--4-4--X---2--X--2-2--X--------------------|
E|----------------------------------------------------------------|
    HET LITTLE     KID DID YOU    WAKE UP LATE   ONE DAY AND YOU’RE NOT

e|-------------------------------------------------------------------------|
B|--------------------------------------------------------2--X--2-2--X-----|
G|--9--X--9-9--X---6--X--6-6--X------------4--X--4-4--X---2--X--2-2--X-----|
D|--9--X--9-9--X---6--X--6-6--X------------4--X--4-4--X---2--X--2-2--X-----|
A|--7--X--7-7--X---4--X--4-4--X------------2--X--2-2--X--------------------|
E|-------------------------------------------------------------------------|
    SO YOUNG BUT   DUMB AND YOU’RE         NUMB TO YOUR   GLORY AND NOW IT’S   
    YOU’RE STILL                           OLD 

e|----------------------------------------------------------------|
B|-----------------------------------------------2--X--2-2--X-----|
G|--9--X--9-9--X---6--X--6-6--X---4--X--4-4--X---2--X--2-2--X-----|
D|--9--X--9-9--X---6--X--6-6--X---4--X--4-4--X---2--X--2-2--X-----|
A|--7--X--7-7--X---4--X--4-4--X---2--X--2-2--X--------------------|
E|----------------------------------------------------------------|
       I FELL IN   LOVE BUT IT    DIDN’T CATCH   FALL THEN I
                                  YOUR

e|------------------------------------------------------------------------------|
B|------------------------------------------2-2-2-2--2-2-2-2--2-2-2-2--2-2-2-2--|
G|--9--X--9-9--X---6--X--6-6--X--4--X--4-4--2-2-2-2--2-2-2-2--2-2-2-2--2-2-2-2--|
D|--9--X--9-9--X---6--X--6-6--X--4--X--4-4--2-2-2-2--2-2-2-2--2-2-2-2--2-2-2-2--|
A|--7--X--7-7--X---4--X--4-4--X--2--X--2-2--------------------------------------|
E|------------------------------------------------------------------------------|
  CRASHED INTO A   WALL THEN I   FELL       PIECES ON THE     NOW YOU’RE SICK TO 
                                            FLOOR            DEATH

e|------------------------------------------------------------|
B|-------------------------------5-5-5-5-5-5---2-2-2-2-2-2----|
G|----------------4-4-4-4-4-4----6-6-6-6-6-6---2-2-2-2-2-2----|
D|--2-2-2-2-2-2---4-4-4-4-4-4----6-6-6-6-6-6---2-2-2-2-2-2----|
A|--2-2-2-2-2-2---2-2-2-2-2-2----4-4-4-4-4-4------------------|
E|--0-0-0-0-0-0-----------------------------------------------|
          BOMBS   AWAY HERE GOES NOTHING THE  OVER AND OUT
                                 SHOUTING’S 

e|------------------------------------------------------------------------|
B|-------------------------------5-5-5-5-5-5---2-2-2-2-2-2---2-2-2-2-2-2--|
G|----------------4-4-4-4-4-4----6-6-6-6-6-6---2-2-2-2-2-2---2-2-2-2-2-2--|
D|--2-2-2-2-2-2---4-4-4-4-4-4----6-6-6-6-6-6---2-2-2-2-2-2---2-2-2-2-2-2--|
A|--2-2-2-2-2-2---2-2-2-2-2-2----4-4-4-4-4-4------------------------------|
E|--0-0-0-0-0-0-----------------------------------------------------------|
HEY X KID BOMBS   AWAY HERE GOES NOTHING THE   OVER AND OUT OVER AND OUT AGAIN
                                 SHOUTING’S 

e|----------------------------------------------------------------|
B|-----------------------------------------------2--X--2-2--X-----|
G|--9--X--9-9--X---6--X--6-6--X---4--X--4-4--X---2--X--2-2--X-----|
D|--9--X--9-9--X---6--X--6-6--X---4--X--4-4--X---2--X--2-2--X-----|
A|--7--X--7-7--X---4--X--4-4--X---2--X--2-2--X--------------------|
E|----------------------------------------------------------------|

e|----------------------------------------------------------------|
B|-----------------------------------------------2--X--2-2--X-----|
G|--9--X--9-9--X---6--X--6-6--X---4--X--4-4--X---2--X--2-2--X-----|
D|--9--X--9-9--X---6--X--6-6--X---4--X--4-4--X---2--X--2-2--X-----|
A|--7--X--7-7--X---4--X--4-4--X---2--X--2-2--X--------------------|
E|----------------------------------------------------------------|
  I ONCE WAS OLD   ENOUGH TO KNOW BETTER THAN I  WAS TOO YOUNG TO 

e|---------------------------------------------------------------------|
B|----------------------------------------------------2--X--2-2--X-----|
G|--9--X--9-9--X---6--X--6-6--X-----4--X--4-4--X------2--X--2-2--X-----|
D|--9--X--9-9--X---6--X--6-6--X-----4--X--4-4--X------2--X--2-2--X-----|
A|--7--X--7-7--X---4--X--4-4--X-----2--X--2-2--X-----------------------|
E|---------------------------------------------------------------------|
    CARE BUT WHO   CARES PROBABLY   WOULD BUT HOLLY - WOOD IS DEAD AND

e|--------------------------------------------------------------------|
B|---------------------------------------------------2--X--2-2--X-----|
G|--9--X--9-9--X-----6--X--6-6--X-----4--X--4-4--X---2--X--2-2--X-----|
D|--9--X--9-9--X-----6--X--6-6--X-----4--X--4-4--X---2--X--2-2--X-----|
A|--7--X--7-7--X-----4--X--4-4--X-----2--X--2-2--X--------------------|
E|--------------------------------------------------------------------|
    GONE YOU FELL IN LOVE BUT THEN    YOU JUST FELL  APART LIKE A

e|------------------------------------------------------------------------------|
B|------------------------------------------2-2-2-2--2-2-2-2--2-2-2-2--2-2-2-2--|
G|--9--X--9-9--X--6--X--6-6--X---4--X--4-4--2-2-2-2--2-2-2-2--2-2-2-2--2-2-2-2--|
D|--9--X--9-9--X--6--X--6-6--X---4--X--4-4--2-2-2-2--2-2-2-2--2-2-2-2--2-2-2-2--|
A|--7--X--7-7--X--4--X--4-4--X---2--X--2-2--------------------------------------|
E|------------------------------------------------------------------------------|  
  KICK IN THE   HEAD YOU’RE AN  X KID AND   YOU NEVER EVEN    GOT STARTED AGAIN

e|------------------------------------------------------------|
B|-------------------------------5-5-5-5-5-5---2-2-2-2-2-2----|
G|----------------4-4-4-4-4-4----6-6-6-6-6-6---2-2-2-2-2-2----|
D|--2-2-2-2-2-2---4-4-4-4-4-4----6-6-6-6-6-6---2-2-2-2-2-2----|
A|--2-2-2-2-2-2---2-2-2-2-2-2----4-4-4-4-4-4------------------|
E|--0-0-0-0-0-0-----------------------------------------------|
          BOMBS   AWAY HERE GOES NOTHING THE  OVER AND OUT
                                 SHOUTING’S 

e|------------------------------------------------------------------------|
B|-------------------------------5-5-5-5-5-5---2-2-2-2-2-2---2-2-2-2-2-2--|
G|----------------4-4-4-4-4-4----6-6-6-6-6-6---2-2-2-2-2-2---2-2-2-2-2-2--|
D|--2-2-2-2-2-2---4-4-4-4-4-4----6-6-6-6-6-6---2-2-2-2-2-2---2-2-2-2-2-2--|
A|--2-2-2-2-2-2---2-2-2-2-2-2----4-4-4-4-4-4------------------------------|
E|--0-0-0-0-0-0-----------------------------------------------------------|
HEY X KID BOMBS   AWAY HERE GOES NOTHING THE   OVER AND OUT OVER AND OUT AGAIN
                                 SHOUTING’S

e|------------------------------------------------------------------|
B|--2-2-2-2---------------------------2-2-2-2-----------------------|
G|--2-2-2-2------4---4-4-4-4-4-4------2-2-2-2-----4---4-4-4-4-4-4---|
D|--2-2-2-2--2---4---4-4-4-4-4-4------2-2-2-2--2--4---4-4-4-4-4-4---|
A|-----------2---2---2-2-2-2-2-2---------------2--2---2-2-2-2-2-2---|
E|-----------0---------------------------------0--------------------|
                    AND YOU WERE                      AND YOU GOT LOST AND
                    SEARCHING YOUR SOUL

e|-----------------------------------------------------------------------|
B|--2-2-2-2--------------------------------------------------------------|
G|--2-2-2-2------4---4-4-4-4-4-4-----------------------------------------|
D|--2-2-2-2--2---4---4-4-4-4-4-4----2-2-2-2--2-2-2-2--2-2-2-2--2-2-2-2---|
A|-----------2---2---2-2-2-2-2-2----0-0-0-0--0-0-0-0--0-0-0-0--0-0-0-0---|
E|-----------0-----------------------------------------------------------|
   OUT OF CONTROL    YOU WENT OVER  EDGE      OF       JOKING
                     THE

e|---------------------------------------|
B|---------------------------------------|
G|---------------------------------------|
D|--2-2-2-2--2-2-2-2--2-2-2-2--2-2-2-2---|
A|--0-0-0-0--0-0-0-0--0-0-0-0--0-0-0-0---|
E|---------------------------------------|
    DIED     OF      A      BROKEN

SOLO
e|----------------------------------------------------------------|
B|-----------------------------------------------2--X--2-2--X-----|
G|--9--X--9-9--X---6--X--6-6--X---4--X--4-4--X---2--X--2-2--X-----|
D|--9--X--9-9--X---6--X--6-6--X---4--X--4-4--X---2--X--2-2--X-----|
A|--7--X--7-7--X---4--X--4-4--X---2--X--2-2--X--------------------|
E|----------------------------------------------------------------|

e|----------------------------------------------------------------|
B|-----------------------------------------------2--X--2-2--X-----|
G|--9--X--9-9--X---6--X--6-6--X---4--X--4-4--X---2--X--2-2--X-----|
D|--9--X--9-9--X---6--X--6-6--X---4--X--4-4--X---2--X--2-2--X-----|
A|--7--X--7-7--X---4--X--4-4--X---2--X--2-2--X--------------------|
E|----------------------------------------------------------------|
    HEY LITTLE     KID DID YOU    WAKE UP LATE   DAY AND YOUR NOT SO
                                  ONE

e|------------------------------------------------------------------------------|
B|------------------------------------------2-2-2-2--2-2-2-2--2-2-2-2--2-2-2-2--|
G|--9--X--9-9--X--6--X--6-6--X---4--X--4-4--2-2-2-2--2-2-2-2--2-2-2-2--2-2-2-2--|
D|--9--X--9-9--X--6--X--6-6--X---4--X--4-4--2-2-2-2--2-2-2-2--2-2-2-2--2-2-2-2--|
A|--7--X--7-7--X--4--X--4-4--X---2--X--2-2--------------------------------------|
E|------------------------------------------------------------------------------|
    YOUNG BUT      DUMB YOU’RE AN X KID AND YOU NEVER EVEN     GOT STARTED AGAIN
    YOU’RE STILL

e|------------------------------------------------------------|
B|-------------------------------5-5-5-5-5-5---2-2-2-2-2-2----|
G|----------------4-4-4-4-4-4----6-6-6-6-6-6---2-2-2-2-2-2----|
D|--2-2-2-2-2-2---4-4-4-4-4-4----6-6-6-6-6-6---2-2-2-2-2-2----|
A|--2-2-2-2-2-2---2-2-2-2-2-2----4-4-4-4-4-4------------------|
E|--0-0-0-0-0-0-----------------------------------------------|
          BOMBS   AWAY HERE GOES NOTHING THE  OVER 
                                 SHOUTING’S 

e|------------------------------------------------------------|
B|-------------------------------5-5-5-5-5-5---2-2-2-2-2-2----|
G|----------------4-4-4-4-4-4----6-6-6-6-6-6---2-2-2-2-2-2----|
D|--2-2-2-2-2-2---4-4-4-4-4-4----6-6-6-6-6-6---2-2-2-2-2-2----|
A|--2-2-2-2-2-2---2-2-2-2-2-2----4-4-4-4-4-4------------------|
E|--0-0-0-0-0-0-----------------------------------------------|
HEY X KID BOMBS   AWAY HERE GOES NOTHING THE  OVER 
                                 SHOUTING’S 

e|------------------------------------------------------------|
B|-------------------------------5-5-5-5-5-5---2-2-2-2-2-2----|
G|----------------4-4-4-4-4-4----6-6-6-6-6-6---2-2-2-2-2-2----|
D|--2-2-2-2-2-2---4-4-4-4-4-4----6-6-6-6-6-6---2-2-2-2-2-2----|
A|--2-2-2-2-2-2---2-2-2-2-2-2----4-4-4-4-4-4------------------|
E|--0-0-0-0-0-0-----------------------------------------------|
HEY X KID BOMBS   AWAY HERE GOES NOTHING THE  OVER 
                                 SHOUTING’S 

e|------------------------------------------------------------------------|
B|-------------------------------5-5-5-5-5-5---2-2-2-2-2-2---2-2-2-2-2-2--|
G|----------------4-4-4-4-4-4----6-6-6-6-6-6---2-2-2-2-2-2---2-2-2-2-2-2--|
D|--2-2-2-2-2-2---4-4-4-4-4-4----6-6-6-6-6-6---2-2-2-2-2-2---2-2-2-2-2-2--|
A|--2-2-2-2-2-2---2-2-2-2-2-2----4-4-4-4-4-4------------------------------|
E|--0-0-0-0-0-0-----------------------------------------------------------|
HEY X KID BOMBS   AWAY HERE GOES NOTHING THE   OVER AND OUT  OVER AND OUT
                                 SHOUTING’S

e|-----------------------------------------------|
B|--2-2-2-2--2-2-2-2--2-2-2-2--2-2-2-2-----------|
G|--2-2-2-2--2-2-2-2--2-2-2-2--2-2-2-2-----------|
D|--2-2-2-2--2-2-2-2--2-2-2-2--2-2-2-2-----------|
A|-----------------------------------------------|
E|-----------------------------------------------|
    OV_______ER       AND      OUT

e|-----------------------------------------------------------------|
B|-----------------------------------------------2--X--2-2--X------|
G|--9--X--9-9--X---6--X--6-6--X---4--X--4-4--X---2--X--2-2--X------|
D|--9--X--9-9--X---6--X--6-6--X---4--X--4-4--X---2--X--2-2--X---2--|
A|--7--X--7-7--X---4--X--4-4--X---2--X--2-2--X------------------2--|
E|--------------------------------------------------------------0--|

            
            
Suggest correction
Creating personal tab
Creating personal tab
You can edit any tab online and save it as your Personal.

You can edit, replace or remove any tab part or add personal notes – all changes will be seen only by you.

Personal tabs can be accessed anytime from any device, even offline.
Learn more »
Give kudos to tab author, rate the tab!
1 2 3 4 5
comments
print report bad tab
guest
You may want to rate the tab now too:
select rating
Wanna post a correction for this tab? Suggest correction