Oops, an error
Loading. Please wait.

Youngblood Tab

version 1
version 1

Whole song

  • My version is tabbed out not chords and it's not l... Show more

Interactive

2,656 views 195 this week
no commentswrite comment
1 2 3 4 5
x 3
add to favorites
launch autoscroll
font size
0
reset
how to read this tab
guitar tuner
Autoscroll
slow
fast
+/-
esc
set tempo
stop
Help us to improve Ultimate-Guitar.com Take our survey!
×
About this tab version
My version is tabbed out not chords and it's not like the pro tabs my version is different and as close to accurate as I could get. Was this info helpful? Yes No
YOUNG BLOOD


[Intro]

e|--4-4--4-4-4---4-4--4-4-4---4-4---4-4-4---2------------------------------------------|
B|--4-4--4-4-4---4-4--4-4-4---4-4---4-4-4---2------------------------------------------|
G|--6-6--5-5-5---6-6--5-5-5---6-6---5-5-5---3---10b-10b-10b-10b-10b-10b-10br-9---------|
D|--6-6--6-6-6---6-6--6-6-6---6-6---6-6-6---4----------------------------------11------|
A|--4-4--6-6-6---4-4--6-6-6---4-4---6-6-6---4------------------------------------------|
E|--4-4--4-4-4---4-4--4-4-4---4-4---4-4-4---2------------------------------------------|


[Chorus]

e|-------------------------------------------------------------------------------------|
B|-------------------------------------------------------------------------------------|
G|--6-6-6--------------6-6-6--------------6-6-6----------------------------------------|
D|--6-6-6--4-4--6-6-6--6-6-6--4-4--6-6-6--6-6-6--4-4--6-6-6--4-4-4--8-8--6-6-6---------|
A|--4-4-4--4-4--6-6-6--4-4-4--4-4--6-6-6--4-4-4--4-4--6-6-6--4-4-4--8-8--6-6-6---------|
E|---------2-2--4-4-4---------2-2--4-4-4---------2-2--4-4-4--2-2-2--6-6--4-4-4---------|
    YOUNG BLOOD        YOUNG BLOOD        YOUNG BLOOD        SHE’S MY LITTLE YOUNG BLOOD

e|-------------------------------------------------------------------------------------|
B|-------------------------------------------------------------------------------------|
G|--6-6-6--------------6-6-6--------------6-6-6----------------------------------------|
D|--6-6-6--4-4--6-6-6--6-6-6--4-4--6-6-6--6-6-6--4-4--6-6-6--4-4-4--8-8--6-6-6---------|
A|--4-4-4--4-4--6-6-6--4-4-4--4-4--6-6-6--4-4-4--4-4--6-6-6--4-4-4--8-8--6-6-6---------|
E|---------2-2--4-4-4---------2-2--4-4-4---------2-2--4-4-4--2-2-2--6-6--4-4-4---------|
    YOUNG BLOOD        YOUNG BLOOD        YOUNG BLOOD        PUNCH DRUNK AND YOUNG BLOOD


[Verse]

e|--4-4--4-4-4-----4-4--4-4-4----4-4---4-4-4-----2-2--4-4-4-----------------|
B|--4-4--4-4-4-----4-4--4-4-4----4-4---4-4-4-----2-2--4-4-4-----------------|
G|--6-6--5-5-5-----6-6--5-5-5----6-6---5-5-5-----3-3--6-6-6-----------------|
D|--6-6--6-6-6-----6-6--6-6-6----6-6---6-6-6-----4-4--6-6-6-----------------|
A|--4-4--6-6-6-----4-4--6-6-6----4-4---6-6-6-----4-4--4-4-4-----------------|
E|--4-4--4-4-4-----4-4--4-4-4----4-4---4-4-4-----2-2--4-4-4-----------------|
    SHE’S A LONER  NOT A STONER  BLEEDING HEART  AND THE SOUL OF MS. TERESA

e|--4-4--4-4-4-----4-4--4-4-4----4-4---4-4-4------------2-2-2-2-X-------------|
B|--4-4--4-4-4-----4-4--4-4-4----4-4---4-4-4------------2-2-2-2-X-------------|
G|--6-6--5-5-5-----6-6--5-5-5----6-6---5-5-5------------3-3-3-3-X-------------|
D|--6-6--6-6-6-----6-6--6-6-6----6-6---6-6-6------------4-4-4-4-X-------------|
A|--4-4--6-6-6-----4-4--6-6-6----4-4---6-6-6------------4-4-4-4-X-------------|
E|--4-4--4-4-4-----4-4--4-4-4----4-4---4-4-4------------2-2-2-2-X-------------|
    SUPERNOVA      CHERRY COLA   SHE’S THE CEDAR IN THE TREES OF MINNESOTA

e|------------------------------------------------------------------------|
B|------------------------------------------------------------------------|
G|--6-6-6----------6-6-6----------6-6-6-----------------------------------|
D|--6-6-6--6-6-6---6-6-6--6-6-6---6-6-6--6-6-6---4-4-4--8-8--6-6-6--------|
A|--4-4-4--6-6-6---4-4-4--6-6-6---4-4-4--6-6-6---4-4-4--8-8--6-6-6--------|
E|---------4-4-4----------4-4-4----------4-4-4---2-2-2--6-6--4-4-4--------|

e|------------------------------------------------------------------------|
B|------------------------------------------------------------------------|
G|--9/8----4/6---------9/8----4/6----------9/8---4/6----------------------|
D|------------------------------------------------------------------------|
A|------------------------------------------------------------------------|
E|------------------------------------------------------------------------|

e|--4-4--4-4-4-------4-4--4-4-4------4-4---4-4-4-------2-2--4-4-4-----------------|
B|--4-4--4-4-4-------4-4--4-4-4------4-4---4-4-4-------2-2--4-4-4-----------------|
G|--6-6--5-5-5-------6-6--5-5-5------6-6---5-5-5-------3-3--6-6-6-----------------|
D|--6-6--6-6-6-------6-6--6-6-6------6-6---6-6-6-------4-4--6-6-6-----------------|
A|--4-4--6-6-6-------4-4--6-6-6------4-4---6-6-6-------4-4--4-4-4-----------------|
E|--4-4--4-4-4-------4-4--4-4-4------4-4---4-4-4-------2-2--4-4-4-----------------|
    I’M A ROUGH BOY  ROUND THE EDGES GETTING DRUNK AND FALLING INTO HEDGES

e|--4-4--4-4-4---------4-4--4-4-4------4-4---4-4-4--------------2-2-2-X-----------|
B|--4-4--4-4-4---------4-4--4-4-4------4-4---4-4-4--------------2-2-2-X-----------|
G|--6-6--5-5-5---------6-6--5-5-5------6-6---5-5-5--------------3-3-3-X-----------|
D|--6-6--6-6-6---------6-6--6-6-6------6-6---6-6-6--------------4-4-4-X-----------|
A|--4-4--6-6-6---------4-4--6-6-6------4-4---6-6-6--------------4-4-4-X-----------|
E|--4-4--4-4-4---------4-4--4-4-4------4-4---4-4-4--------------2-2-2-X-----------|
    SHE’S MY WEAKNESS  FUCKING GENIUS  SWEAR TO GOD AND I’M NOT EVEN SUPERSTITIOUS


[Chorus]

e|-------------------------------------------------------------------------------------|
B|-------------------------------------------------------------------------------------|
G|--6-6-6--------------6-6-6--------------6-6-6----------------------------------------|
D|--6-6-6--4-4--6-6-6--6-6-6--4-4--6-6-6--6-6-6--4-4--6-6-6--4-4-4--8-8--6-6-6---------|
A|--4-4-4--4-4--6-6-6--4-4-4--4-4--6-6-6--4-4-4--4-4--6-6-6--4-4-4--8-8--6-6-6---------|
E|---------2-2--4-4-4---------2-2--4-4-4---------2-2--4-4-4--2-2-2--6-6--4-4-4---------|
    YOUNG BLOOD        YOUNG BLOOD        YOUNG BLOOD        SHE’S MY LITTLE YOUNG BLOOD

e|-------------------------------------------------------------------------------------|
B|-------------------------------------------------------------------------------------|
G|--6-6-6--------------6-6-6--------------6-6-6----------------------------------------|
D|--6-6-6--4-4--6-6-6--6-6-6--4-4--6-6-6--6-6-6--4-4--6-6-6--4-4-4--8-8--6-6-6---------|
A|--4-4-4--4-4--6-6-6--4-4-4--4-4--6-6-6--4-4-4--4-4--6-6-6--4-4-4--8-8--6-6-6---------|
E|---------2-2--4-4-4---------2-2--4-4-4---------2-2--4-4-4--2-2-2--6-6--4-4-4---------|
    YOUNG BLOOD        YOUNG BLOOD        YOUNG BLOOD        PUNCH DRUNK AND YOUNG BLOOD


[Bridge]

e|--6-------------------------------------------------------------------------|
B|--7--------------7-6--------------------------------------------------------|
G|--8------------8---------------8-6-5----------------------------------------|
D|--8----------8------------------------8-------------------------------------|
A|--6--------6----------------------------------------------------------------|
E|----------------------------------------------------------------------------|
    I WANNA HOLD YOU LIKE A GUN             WE’LL SHOOT THE MOON INTO THE  

e|--------------------------------------------------------|
B|--------------------------------------------------------|
G|--6-------6-------6-------------------------------------|
D|--6--6----6--6----6--6----6-6-6-6--6-6-6-6--6-6-6-------|
A|--4--6----4--6----4--6----6-6-6-6--6-6-6-6--6-6-6-------|
E|-----4-------4-------4----4-4-4-4--4-4-4-4--4-4-4-------|
    THE SUN ALRIGHT ALRIGHT


[Solo]

e|---------------------------------------------------------------------------------|
B|---------------------------------------------------------------------------------|
G|--6-6-6--------------6-6-6--------------6-6-6------------------------------------|
D|--6-6-6--4-4--6-6-6--6-6-6--4-4--6-6-6--6-6-6--4-4--6-6-6--4-4-4--8-8--6-6-6-----|
A|--4-4-4--4-4--6-6-6--4-4-4--4-4--6-6-6--4-4-4--4-4--6-6-6--4-4-4--8-8--6-6-6-----|
E|---------2-2--4-4-4---------2-2--4-4-4---------2-2--4-4-4--2-2-2--6-6--4-4-4-----|

e|---------------------------------------------------------------------------------|
B|---------------------------------------------------------------------------------|
G|--6-6-6--------------6-6-6--------------6-6-6------------------------------------|
D|--6-6-6--4-4--6-6-6--6-6-6--4-4--6-6-6--6-6-6--4-4--6-6-6--4-4-4--8-8--6-6-6-----|
A|--4-4-4--4-4--6-6-6--4-4-4--4-4--6-6-6--4-4-4--4-4--6-6-6--4-4-4--8-8--6-6-6-----|
E|---------2-2--4-4-4---------2-2--4-4-4---------2-2--4-4-4--2-2-2--6-6--4-4-4-----|


[Intro]

e|--4-4--4-4-4-----4-4--4-4-4----4-4---4-4-4-----4-4--4-4-4-------|
B|--4-4--4-4-4-----4-4--4-4-4----4-4---4-4-4-----4-4--4-4-4-------|
G|--6-6--5-5-5-----6-6--5-5-5----6-6---5-5-5-----6-6--5-5-5-------|
D|--6-6--6-6-6-----6-6--6-6-6----6-6---6-6-6-----6-6--6-6-6-------|
A|--4-4--6-6-6-----4-4--6-6-6----4-4---6-6-6-----4-4--4-4-4-------|
E|--4-4--4-4-4-----4-4--4-4-4----4-4---4-4-4-----4-4--4-4-4-------|


[Verse]

e|--4-4--4-4-4--------4-4--4-4-4--------4-4---4-4-4------------2-2--4-4-4-----------|
B|--4-4--4-4-4--------4-4--4-4-4--------4-4---4-4-4------------2-2--4-4-4-----------|
G|--6-6--5-5-5--------6-6--5-5-5--------6-6---5-5-5------------3-3--6-6-6-----------|
D|--6-6--6-6-6--------6-6--6-6-6--------6-6---6-6-6------------4-4--6-6-6-----------|
A|--4-4--6-6-6--------4-4--6-6-6--------4-4---6-6-6------------4-4--4-4-4-----------|
E|--4-4--4-4-4--------4-4--4-4-4--------4-4---4-4-4------------2-2--4-4-4-----------|
    ARE YOU STRANDED  LIKE I’M STRANDED DO YOU WANNA WATCH THE WORLD FALL TO PIECES

e|--4-4--4-4-4------4-4--4-4-4-------4-4---4-4-4-X---------------------|
B|--4-4--4-4-4------4-4--4-4-4-------4-4---4-4-4-X---------------------|
G|--6-6--5-5-5------6-6--5-5-5-------6-6---5-5-5-X---------------------|
D|--6-6--6-6-6------6-6--6-6-6-------6-6---6-6-6-X---------------------|
A|--4-4--6-6-6------4-4--6-6-6-------4-4---6-6-6-X---------------------|
E|--4-4--4-4-4------4-4--4-4-4-------4-4---4-4-4-X---------------------|
    ARE YOU BROKEN  LIKE I’M BROKEN  ARE YOU RESTLESS SHE SAID FUCK YOU
                                                      I’M FROM OAKLAND


[Chorus]

e|-------------------------------------------------------------------------------------|
B|-------------------------------------------------------------------------------------|
G|--6-6-6--------------6-6-6--------------6-6-6----------------------------------------|
D|--6-6-6--4-4--6-6-6--6-6-6--4-4--6-6-6--6-6-6--4-4--6-6-6--4-4-4--8-8--6-6-6---------|
A|--4-4-4--4-4--6-6-6--4-4-4--4-4--6-6-6--4-4-4--4-4--6-6-6--4-4-4--8-8--6-6-6---------|
E|---------2-2--4-4-4---------2-2--4-4-4---------2-2--4-4-4--2-2-2--6-6--4-4-4---------|
    YOUNG BLOOD        YOUNG BLOOD        YOUNG BLOOD        SHE’S MY LITTLE YOUNG BLOOD

e|-------------------------------------------------------------------------------------|
B|-------------------------------------------------------------------------------------|
G|--6-6-6--------------6-6-6--------------6-6-6----------------------------------------|
D|--6-6-6--4-4--6-6-6--6-6-6--4-4--6-6-6--6-6-6--4-4--6-6-6--4-4-4--8-8--6-6-6---------|
A|--4-4-4--4-4--6-6-6--4-4-4--4-4--6-6-6--4-4-4--4-4--6-6-6--4-4-4--8-8--6-6-6---------|
E|---------2-2--4-4-4---------2-2--4-4-4---------2-2--4-4-4--2-2-2--6-6--4-4-4---------|
   YOUNG BLOOD        YOUNG BLOOD        YOUNG BLOOD        PUNCH DRUNK AND YOUNG BLOOD


[Outro]

e|------------------------------------------------------------------------|
B|------------------------------------------------------------------------|
G|--6-6-6----------6-6-6----------6-6-6-----------------------------------|
D|--6-6-6--6-6-6---6-6-6--6-6-6---6-6-6--6-6-6---4-4-4--8-8--6-6-6--------|
A|--4-4-4--6-6-6---4-4-4--6-6-6---4-4-4--6-6-6---4-4-4--8-8--6-6-6--------|
E|---------4-4-4----------4-4-4----------4-4-4---2-2-2--6-6--4-4-4--------|

e|------------------------------------------------------------------------|
B|------------------------------------------------------------------------|
G|--9/8----4/6---------9/8----4/6----------9/8---4/6----------------------|
D|------------------------------------------------------------------------|
A|------------------------------------------------------------------------|
E|------------------------------------------------------------------------|

e|------------------------------------------------------------------------|
B|------------------------------------------------------------------------|
G|--6-6-6----------6-6-6----------6-6-6-----------------------------------|
D|--6-6-6--6-6-6---6-6-6--6-6-6---6-6-6--6-6-6---4-4-4--8-8--6-6---4------|
A|--4-4-4--6-6-6---4-4-4--6-6-6---4-4-4--6-6-6---4-4-4--8-8--6-6---4------|
E|---------4-4-4----------4-4-4----------4-4-4---2-2-2--6-6--4-4---2------|

e|------------------------------------------------------------------------|
B|------------------------------------------------------------------------|
G|--9/8----4/6---------9/8----4/6----------9/8---4/6----------------------|
D|------------------------------------------------------------------------|
A|------------------------------------------------------------------------|
E|------------------------------------------------------------------------|



************************************

| b   Bend
| br  Bend release
| /   Slide up
| X   dead note

************************************
Suggest correction
Give kudos to tab author, rate the tab!
1 2 3 4 5
comments
print report bad tab
guest
You may want to rate the tab now too:
select rating
Wanna post a correction for this tab? Suggest correction