Oops, an error
Loading. Please wait.

Cereal Killer Tab

1,249 views 1 this week
3 commentsread comments
1 2 3 4 5
please rate
add to favorites
launch autoscroll
font size
0
reset
how to read this tab
guitar tuner
Tab Pro tools
  • play this tab
  • loop segment
  • change instrument
  • show fretboard
  • metronome
×
Best way to learn
"Cereal Killer"
Autoscroll
slow
fast
+/-
esc
set tempo
stop
Contributor
Band: Green Jelly
Song: Cereal Killer

Tabber: John Cukras
Aim: Ebryocrusher

Tuning: normal

Riff 1:
E-------------------------------------------------------
B-------------------------------------------------------
G-------------------------------------------------------
D-------------------------------------------------------
A-9-7-5-4/9--------999-777-555-444---5--7--9--5--7--11-9
E-7-5-3-2/7 x's 7--777-555-333-222---3--5--7--3--5---9-7 x's 2

Riff 2: Pm's done all through : A          B
E--------------------------------------|----------------------
B--------------------------------------|----------------------
G--------------------------------------|----------------------
D--------------3/4-4/2-2/3-3/1-3-------|--22------------22----
A--------------3/4-4/2-2/3-3/1-3 x's 4-|--22-4-3--------22-4-5
E-0000000000---------------------------|--00-2-1 x's 3--00-2-3
pm..........

Muddled Part

Riff 1

Riff 2: A , B

Snap, Crackle, Pop

Riff 2: A x's 7 (under solo) , B x's 9 

Outro:
E---------------------------------
B---------------------------------
G---------------------------------
D-------------------------------22
A-55-4-5--66-5-6--77-6-7-888/---22
E-33-2-3--44-3-4--55-4-5-666/---00
comments
We did not receive enough feedback on this tab! Please rate:
print report bad tab
1 2 3 4 5
3 comments total.
0 reply
Joshua1207 wrote on July 12 2010, 06:37 pm

Your tab is missing a lot of the song. Where is the part with the Leprechaun?

0 reply
pachetahgmod wrote on March 11 2014, 02:13 am

Theres the lucky charms part tab

E-------------------------------------------------------
B-------------------------------------------------------
G----------------------0--------------------------------
D--2-2-2--------2-2-2-----2---------------------0-------
A--------3-3-3---------------2-2-2-------2-2-2-----2----
E----------------------------------3-3-3----------------

E-----------------------------x-x-x--x--x--x-x-x-x------
B-----------------------------x-x-x--1--1--x-x-x-x------
G----------------------0------0-0-0--2--2--0-0-0-0------
D--2-2-2--------2-2-2-----2---0-0-0--3--3--2-2-2-2------
A--------3-3-3----------------2-2-2--0--0--3-3-3-3------
E-----------------------------3-3-3--x--x--x-x-x-x------

0 reply
pachetahgmod wrote on March 11 2014, 02:12 am

E-------------------------------------------------------
B-------------------------------------------------------
G----------------------0--------------------------------
D--2-2-2--------2-2-2-----2---------------------0-------
A--------3-3-3---------------2-2-2-------2-2-2-----2----
E----------------------------------3-3-3----------------

E-----------------------------x-x-x--x--x--x-x-x-x------
B-----------------------------x-x-x--1--1--x-x-x-x------
G----------------------0------0-0-0--2--2--0-0-0-0------
D--2-2-2--------2-2-2-----2---0-0-0--3--3--2-2-2-2------
A--------3-3-3----------------2-2-2--0--0--3-3-3-3------
E-----------------------------3-3-3--x--x--x-x-x-x------

I want to post or [tab]
guest
You may want to rate the tab now too:
select rating
Please do not post tabs as comments. Select "correction" instead!