Oops, an error
Loading. Please wait.

Come On Down Tab

version 1
version 1

Whole song

1,613 views 1 this week
1 commentread comment
1 2 3 4 5
please rate
add to favorites
launch autoscroll
font size
0
reset
how to read this tab
guitar tuner
Tab Pro tools
  • play this tab
  • loop segment
  • change instrument
  • show fretboard
  • metronome
×
Best way to learn
"Come On Down"
Autoscroll
slow
fast
+/-
esc
set tempo
stop
Contributor
The first and probably only green river tab on the net


E---------------------------------------------------|
A-7-7-7-7-7-7-7-7-8--8----7-7-7-7-7-2-3-------------|
D-9-9-9-9-9-9-9-9-10-10---9-9-9-9-9-4-5-------------|
G-9-9-9-9-9-9-9-9-10-10---9-9-9-9-9-4-5       Play--| 4x
B---------------------------------------------------|
E---------------------------------------------------|
 C'mon , C'mon C'mon yea
C'mon down to the river...


E----------------------------------------|
A--7-10--9-12-11-10-----7-10--9-12-11-10-|
D--9-12-11-14-13-12-----9-12-11-14-13-12-|
G--9-12-11-14-13-12-----9-12-11-14-13-12-|
B----------------------------------------|
E----------------------------------------|


E----------------------------------------|
A--7-10--9-12-11-10-----7-10--9-12-11-10-|
D--9-12-11-14-13-12-----9-12-11-14-13-12-|
G--9-12-11-14-13-12-----9-12-11-14-13-12-|
B----------------------------------------|
E----------------------------------------|

  Lift your eyes to the skies above
  Come on in, feel my love

E--------------------------------------------|
A--5-----------10-----7-------------12-11-10-|
D--7-----------8------9-------------14-13-12-|
G--7-----------8------9-------------14-13-12-|
B--------------------------------------------|
E--------------------------------------------|
  A little bit here, a little piece there

Pieces of love everywhere...

E---------------------------------------------------|
A-7-7-7-7-7-7-7-7-8--8----7-7-7-7-7-2-3-------------|
D-9-9-9-9-9-9-9-9-10-10---9-9-9-9-9-4-5-------------|
G-9-9-9-9-9-9-9-9-10-10---9-9-9-9-9-4-5       Play--| 4x
B---------------------------------------------------|
E---------------------------------------------------|
   C'mon C'mon C'mon yea
C'mon down to the river...

E----------------------------------------|
A--7-10--9-12-11-10-----7-10--9-12-11-10-|
D--9-12-11-14-13-12-----9-12-11-14-13-12-|
G--9-12-11-14-13-12-----9-12-11-14-13-12-|
B----------------------------------------|
E----------------------------------------|

E----------------------------------------|
A--7-10--9-12-11-10-----7-10--9-12-11-10-|
D--9-12-11-14-13-12-----9-12-11-14-13-12-|
G--9-12-11-14-13-12-----9-12-11-14-13-12-|
B----------------------------------------|
E----------------------------------------|

The river runs shallow, the river goes deep
The river calls in your sleep

E--------------------------------------------|
A--5-----------10-----7-------------12-11-10-|
D--7-----------8------9-------------14-13-12-|
G--7-----------8------9-------------14-13-12-|
B--------------------------------------------|
E--------------------------------------------|
   Dig this baby,    now dig this hole
Your body's so warm, the river's so cold

E--------------------------------------|
A-7-7-7-7-7-7-7-7-8--8-----------------|
D-9-9-9-9-9-9-9-9-10-10----------------|
G-9-9-9-9-9-9-9-9-10-10----------------|
B--------------------------------------|
E--------------------------------------|
  And you are the one I want to hold
  You're the one I want to hold

E-------------------------------------------|
A--5-5-5-5-5-5-5-5-6-6----------------------|
D--7-7-7-7-7-7-7-7-8-8----------------------|
G--7-7-7-7-7-7-7-7-8-8----------------------|
B-------------------------------------------|
E-------------------------------------------|
 You're the one to fill this hole

E--------------------------------------------|
A--5-5-5-5-5----8--8--8----------------------|
D--7-7-7-7-7---10-10-10----------------------|
G--7-7-7-7-7---10-10-10----------------------|
B--------------------------------------------|
E--------------------------------------------|
  You are the one that I'v got to..


E---------------------------------------------------|
A-7-7-7-7-7-7-7-7-8--8----7-7-7-7-7-2-3-------------|
D-9-9-9-9-9-9-9-9-10-10---9-9-9-9-9-4-5-------------|
G-9-9-9-9-9-9-9-9-10-10---9-9-9-9-9-4-5       Play--| 4x
B---------------------------------------------------|
E---------------------------------------------------|
  hold
C'mon C'mon C'mon yea
C'mon down to the river...
comments
We did not receive enough feedback on this tab! Please rate:
print report bad tab
1 2 3 4 5
1 comment total.
0 reply
FlavorCrystal7 wrote on November 28 2013, 12:16 pm

your guitar is strung upside down...

I want to post or [tab]
guest
You may want to rate the tab now too:
select rating
Please do not post tabs as comments. Select "correction" instead!