Oops, an error
Loading. Please wait.

Eris Tab

4 views 1 this week
no commentswrite comment
1 2 3 4 5
3 more votes to show rating
add to favorites
launch autoscroll
font size
0
reset
how to read this tab
guitar tuner
Autoscroll
slow
fast
+/-
esc
set tempo
stop
Help us to improve Ultimate-Guitar.com Take our survey!
×
Author
[Intro]

e|--------------------------------------------------------|
B|--------------------------------------------------------|
G|--------------------------------------------------------|
D|---------------5-------------------------5--------------|
A|---------0h5h7--------0h5h7--------0h5h7--------0h5h7---|
E|---0--0----------0--0-------7-0--0---------0--0-------7-|

e|------------------------------------------------------|
B|------------------------------------------------------|
G|------------------------------------------------------|
D|------------5-------------------------5---------------|
A|------0h5h7--------0h5h7--------0h5h7--------0h5h7----|
E|-0-0----------0--0-------7-0--0---------0--0-------7--|


e|----------------------------------------------------------------------------------|
B|----------------------------------------------------------------------------------|
G|----------------------------------------------------------------------------------|
D|--------9p7---7---5h7-5---7h9\7-----------------9p7---7---5h7-5---7h9\7-----------|
A|------------8---------------------------------------8-----------------------------|
E|---0--0---------0-------0-------0-3h5p3-0--0--0---------0-------0-------0-3h5p3-0-|

e|----------------------------------------------------------------------------------|
B|----------------------------------------------------------------------------------|
G|----------------------------------------------------------------------------------|
D|--------9p7---7---5h7-5---7h9\7-----------------9p7---7---5h7-5---7h9\7-----------|
A|------------8---------------------------------------8-----------------------------|
E|---0--0---------0-------0-------0-3h5p3-0--0--0---------0-------0-------0-3h5p3-0-|


[Verse]

e|----------------------------------------------------------------------------------|
B|----------------------------------------------------------------------------------|
G|----------------------------------------------------------------------------------|
D|--------------------5-------------------------------------5---------5-9p7-------5-|
A|--------------0h5h7---------------0h5h7---------------5h7-------5h7-------7-5h7---|
E|-0-0-0-0-0-0----------0-0-0-0-0-0-------7-0-0-0-0-0-0-------0-0-------------------|

e|---------------------------------------------------------------------------------------------------|
B|---------------------------------------------------------------------------------------------------|
G|---------------------------------------------------------------------------------------------------|
D|-------------------5-----------5-7/9\7p5---7/10-10-10-10-10-10\5-5/7-------------------------------|
A|-------------0h5h7-------0h5h7-----------7-7/10-10-10-10-10-10\5-5/7-------------------------------|
E|-0-0-0-0-0-0---------0-0-------------------5/8--8--8--8--8--8\-3-3/5-------------------------------|

e|---------------------------------------------------------------------|
B|---------------------------------------------------------------------|
G|-----9-7-9---------------------------9-7-9---------------------------|
D|-----9-7-9-------------2-2-2-5-5-5---9-7-9-------------5-5-5-2-2-2---|
A|-----7-5-7-------2-2-2---------------7-5-7-------2-2-2---------------|
E|---0-------3-3-3-------------------0-------3-3-3---------------------|

e|---------------------------------------------------------------------|
B|---------------------------------------------------------------------|
G|-----9-7-9---------------------------9-7-9---------------------------|
D|-----9-7-9-------------2-2-2-5-5-5---9-7-9-------------5-5-5-2-2-2---|
A|-----7-5-7-------2-2-2---------------7-5-7-------2-2-2---------------|
E|---0-------3-3-3-------------------0-------3-3-3---------------------|

[Post-Chorus]
e|-------------------------------------------------|
B|-------------------------------------------------|
G|---9-7-9-7-9---------------9-7-9-7-9-------------|
D|---9-7-9-7-9---------------9-7-9-7-9-5-5-5-2-2-2-|
A|---7-5-7-5-7-------2-2-2---7-5-7-5-7-------------|
E|-0-----------3-3-3-------0-----------------------|

e|-------------------------------------------------|
B|-------------------------------------------------|
G|---9-7-9-7-9---------------9-7-9-7-9-------------|
D|---9-7-9-7-9---------------9-7-9-7-9-5-5-5-2-2-2-|
A|---7-5-7-5-7-------2-2-2---7-5-7-5-7-------------|
E|-0-----------3-3-3-------0-----------------------|

e|----------------------------------------------------------|
B|----------------------------------------------------------|
G|----------------------------------------------------------|
D|------------5-------------------------5-------------------|
A|------0h5h7--------0h5h7--------0h5h7--------0h5h7--------|
E|-0-0----------0--0-------7-0--0---------0--0-------7------|

[Outro]
e|-----------------------------------------------------|
B|-----------------------------------------------------|
G|-----------------------------------------------------|
D|-5/7-5---5---------------2-5/7-5---5---------------2-|
A|-------7---7-5-2-5-2-0-----------7---7-5-2-5-2-0-----|
E|-----------------------2-------------------------2---|

e|---------------------------------------------------------|
B|---------------------------------------------------------|
G|---------------------------------------------------------|
D|-5/7-5---5---------------2-5/7-5---5---------------2-0-2-|
A|-------7---7-5-2-5-2-0-----------7---7-5-2-5-2-0-------2-|
E|-----------------------2-------------------------2-----0-|



************************************

| h  Hammer-on
| p  Pull-off
| \  Slide down
| /  Slide up

************************************
Suggest correction
Give kudos to tab author, rate the tab!
1 2 3 4 5
comments
print report bad tab
guest
You may want to rate the tab now too:
select rating
Wanna post a correction for this tab? Suggest correction