Oops, an error
Loading. Please wait.

Omie Wise Tab

version 2
version 2

Whole song

1,581 views 6 this week
no commentswrite comment
1 2 3 4 5
please rate
add to favorites
launch autoscroll
font size
0
reset
how to read this tab
guitar tuner
Tab Pro tools
  • play this tab
  • loop segment
  • change instrument
  • show fretboard
  • metronome
×
Best way to learn
"Omie Wise"
Autoscroll
slow
fast
+/-
esc
set tempo
stop
Contributor
Omie Wise


Greg Graffin



TRANSCRIBED BY RUDY GUZMAN


guzman_84@hotmail.com




                                               
e:---1-----1----|
B:---2-------2--|
G:---3---3------|
D:-----3--------|
A:-1------------|
E:--------------|

verse
   Come listen to my story  I'll tell you no lies  how John Lewis did murder a
e:---1-----1-----1------1-------4------4-----4------4-----1-----1------1-----1---|
B:---2-------2---2--------2-----4--------4---4--------4---2-------2----2-------2-|
G:---3---3-------3----3---------5------------5------------3---3--------3---3-----|
D:-----3------------3----------------6-----------6----------3------------3-------|
A:-1-----------1-------------------6-----------6--------1------------1-----------|
E:---------------------------4-------------4-------------------------------------|

   little Omie Wise
e:---1------1------1------1------1------1---|
B:---1--------1----2--------2----2--------2-|
G:---1-------------3---3---------3----3-----|
D:--------3----------3--------------3-------|
A:------3--------1-------------1------------|
E:-1----------------------------------------|


   He asked her to meet him at Adams's spring, said he'd bring her money and
e:---1-----1-----1------1-------4------4-----4------4-----1-----1------1-----1---|
B:---2-------2---2--------2-----4--------4---4--------4---2-------2----2-------2-|
G:---3---3-------3----3---------5------------5------------3---3--------3---3-----|
D:-----3------------3----------------6-----------6----------3------------3-------|
A:-1-----------1-------------------6-----------6--------1------------1-----------|
E:---------------------------4-------------4-------------------------------------|

   other fine things
e:---1------1------1------1------1------1---|
B:---1--------1----2--------2----2--------2-|
G:---1-------------3---3---------3----3-----|
D:--------3----------3--------------3-------|
A:------3--------1-------------1------------|
E:-1----------------------------------------|


   So fool like she met him at Adams spring  no money he brought her nor other
e:---1-----1-----1------1-------4------4-----4------4-----1-----1------1-----1---|
B:---2-------2---2--------2-----4--------4---4--------4---2-------2----2-------2-|
G:---3---3-------3----3---------5------------5------------3---3--------3---3-----|
D:-----3------------3----------------6-----------6----------3------------3-------|
A:-1-----------1-------------------6-----------6--------1------------1-----------|
E:---------------------------4-------------4-------------------------------------|

   fine things
e:---1------1------1------1------1--------|
B:---1--------1----2--------2----2--------|
G:---1-------------3---3---------3--------|
D:--------3----------3--------------3p1---|
A:------3--------1-------------1--------3-|
E:-1--------------------------------------|
 
  solo 
e:---6~~--8-6-4-6--8--6-4-----------------------------------------0--0----------------|
B:-6-----------------------6p4-------------------------0----------11-11--6----6-4-----|
G:----------------------5------5----------5------------10-----10---------5--5-----5-3-|
D:-------------------------------6----6h8---8----10-11-----11-------------------------|
A:---------------------------------6----------8---------------------------------------|
E:------------------------------------------------------------------------------------|


e:---1-----1----|
B:---2-------2--|
G:---3---3------|
D:-----3--------|
A:-1------------|
E:--------------|

verse
   John Lewis  John Lewis  won't you tell me your mind, do you intend to
e:---1-----1-----1------1-------4------4-----4------4-----1-----1------1-----1---|
B:---2-------2---2--------2-----4--------4---4--------4---2-------2----2-------2-|
G:---3---3-------3----3---------5------------5------------3---3--------3---3-----|
D:-----3------------3----------------6-----------6----------3------------3-------|
A:-1-----------1-------------------6-----------6--------1------------1-----------|
E:---------------------------4-------------4-------------------------------------|

   marry me or leave me behind....
e:---1------1------1------1------1------1---|
B:---1--------1----2--------2----2--------2-|
G:---1-------------3---3---------3----3-----|
D:--------3----------3--------------3-------|
A:------3--------1-------------1------------|
E:-1----------------------------------------|


there's no need to type the rest because the verse and solo are the same
thru out the whole song just at the end you play this last chord

e:-1--------|
B:-2--------|
G:-3--------|
D:----------|
A:-1--------|
E:----------|

llego la primavera



hillo son mex

21/03/11
comments
We did not receive enough feedback on this tab! Please rate:
print report bad tab
1 2 3 4 5
I want to post or [tab]
guest
You may want to rate the tab now too:
select rating
Please do not post tabs as comments. Select "correction" instead!