Oops, an error
Loading. Please wait.

Serendipity Tab

version 1
version 1

Whole song

Interactive

7,108 views 9 this week
1 commentread comment
1 2 3 4 5
excellent!
x 3
add to favorites
launch autoscroll
font size
0
reset
how to read this tab
guitar tuner
Autoscroll
slow
fast
+/-
esc
set tempo
stop
Help us to improve Ultimate-Guitar.com Take our survey!
×
Author
Capo
1st fret
This is my first tab so go easy on me.
It's a really nice song and easy to play.
It's by an amazing artist who does all of his songs as videos on youtube.

www.youtube.com/gdholden

There are few hammer ons etc. throughout and i'll try and add them in where possible.

Greg Holden - Serendipity

- Capo on 1st -


C - 032010
F*- 003210
Am- 002210
G*- 320010
C7- 032310
Em*-020010 


Intro - 

    C                         F*                       C         

e|---0--0-0-0-----0-----0-----0--0-0-0-----0-----0-----0--0-0-0-----0-----0|
B|---1--1-1-1-----1-----1-----1--1-1-1-----1-----1-----1--1-1-1-----1-----1|
G|---0--0-0-0-----0-----0-----0--0-0-0-----0-----0-----0--0-0-0-----0-----0|
D|---2--2-2-2-----2--2--2--3--3--3-3-3--3--3--2--2-----2--2-2-2-----2--0--0|
A|3--3--3-3-3--3--3-----3-----0--0-0-0-----0-----0--3--3--3-3-3--3--3-----3|
E|---0--0-0-0-----0-----0-----0--0-0-0-----0-----0-----0--0-0-0-----0-----0|

     G*

e|---0--0-0-0--------------------------------------------------------------|
B|---1--1-1-1--------------------------------------------------------------|
G|---0--0-0-0--------------------------------------------------------------|
D|---0--0-0-0--0h2p0-------------------------------------------------------|
A|---2--2-2-2--------2-----------------------------------------------------|
E|3--3--3-3-3-----------3--------------------------------------------------|

    Am                        F*                       C

e|---0--0-0-0-----0-----0-----0--0-0-0-----0-----0-----0--0-0-0-----0-----0|
B|---1--1-1-1-----1-----1-----1--1-1-1-----1-----1-----1--1-1-1-----1-----1|
G|---2--0-0-0-----2-----2-----0--0-0-0-----0--0--0-----0--0-0-0-----0-----0|
D|---2--2-2-2-----2--2--2--3--3--3-3-3--3--3-----3-----2--2-2-2-----2--0--0|
A|0--0--3-3-3--0--0-----0-----0--0-0-0-----0-----0--3--3--3-3-3--3--3-----3|
E|---0--0-0-0-----0-----0-----0--0-0-0-----0-----0-----0--0-0-0-----0-----0|

     G*

e|---0--0-0-0-----0--------------------------------------------------------|
B|---1--1-1-1-----1--------------------------------------------------------|
G|---0--0-0-0-----0--------------------------------------------------------|
D|---0--0-0-0-----0--------------------------------------------------------|
A|---2--2-2-2-----2--0h2---------------------------------------------------|
E|3--3--3-3-3--3--3--------------------------------------------------------|

     C                        C7                                 

e|---0--0-0-0-----0--0-0-0-----0--0-0-0-----0--0-0-0----|
B|---1--1-1-1-----1--1-1-1-----1--1-1-1-----1--1-1-1----|
G|---0--0-0-0-----0--0-0-0-----3--3-3-3-----3--3-3-3----|
D|---2--2-2-2-----2--2-2-2-----2--2-2-2-----2--2-2-2----|
A|3--3--3-3-3--3--3--3-3-3--3--3--3-3-3--3--3--3-3-3----|
E|---0--0-0-0-----0--0-0-0-----0--0-0-0-----0--0-0-0----|



Verse 1

Am                         F*     *Riff 2*
My eyes are faking all the sights
Am
For every page that I read
                      G         *Riff 1*
Comes another to write


Am                            F*     *Riff 2*
My wheels are spinning out of control
Am                              G  
And I feel like Im ready to roll
*Riff 3*
So...



Chorus - Same as intro

I have seen all I need
To roam free within these streets
Climbing up walls that are never too tall
Feeds my soul

Verse 2 -


Am                         F*     *Riff 2*
My words are music to your ears
Am       
For every story I tell
                    G            *Riff 1*
Comes a sequel that you must hear


Am                                 F*    *Riff 2*
I wander your pages in search of a plan
Am
For every chapter I pass
                    G
Draws directions of where I am
    *Riff 3*
And where Im going


Chorus - Same as Intro


I have seen all I need
To roam free within these streets
Climbing up walls that are never too tall
Feeds my soul

Am                            C
Im seeing time explaining its better lines
G*
To me
Am                                  C
Drawing out pages with illustrative rhymes
G*
You'll see

      C    Em*  Am         F*       G   *Riff 3*
And I fall down under your watchful eye


Chorus - Same as Intro


I have seen all I need
To roam free within these streets
Climbing up walls that are never too tall
Feeds my soul [x2]



End with intro cutting out the C7 at the end.





*Riff 1*


e|-------------------------------------------------------------|
B|-------------------------------------------------------------|
G|-------------------------------------------------------------|
D|-0h2p0-------------------------------------------------------|
A|-------2-----------------------------------------------------|
E|----------3--------------------------------------------------|


*Riff 2*

e|----------------------------------------------------------|
B|-------3--------------------------------------------------|
G|-----2---p0-----------------------------------------------|
D|-2h3------------------------------------------------------|
A|----------------------------------------------------------|
E|----------------------------------------------------------|

*Riff 3*

e|-------------------------------------------------------|
B|-------------------------------------------------------|
G|-------------------------------------------------------|
D|-------------------------------------------------------|
A|-0h2---------------------------------------------------|
E|-------------------------------------------------------|






If you're having trouble with the rhythm etc. just use the song to help you.

http://uk.youtube.com/watch?v=FU2XrQ4Xnbw


http://www.gregholdenonline.com/     - Greg Holden's website
Suggest correction new What's this?
You can suggest a correction to this tab. Community and Mods will review your correction and vote to approve or reject it.
comments
We did not receive enough feedback on this tab! Please rate:
print report bad tab
1 2 3 4 5
1 comment total.
0 reply
Pillendreher 131 wrote on June 7 2012, 07:34 am

Very nice tab! Thank you very much.

The hammer-ons are spot-on as far as I can tell.

guest
You may want to rate the tab now too:
select rating
Please do not post tabs as comments. Select "correction" instead!