Oops, an error
Loading. Please wait.

Break Up Song bass

version 2
version 2

Whole song

Interactive

5,488 views 6 this week
2 commentsread comments
1 2 3 4 5
x 4
add to favorites
×
Save as Personal and add changes to this tab that will be seen only by you. Learn more ›
×
You can save this tab as Personal to edit and correct it or add notes. All changes will be seen only by you. Learn more »
launch autoscroll
font size
0
reset
guitar tuner
edit
Autoscroll
slow
fast
+/-
esc
set tempo
stop
Author
-------------------------------------------------------------------------------
			     BREAK UP SONG - Greg Kihn Band
-------------------------------------------------------------------------------

Tabbed By : James Ryan
http://world-according-to-jim.blogspot.com/

Tuning: Standard

Intro
G|----------------------------------------------------------------------------|
D|---------------------------------------------------------------2------------|
A|--0-0-0-0-0-0-0-0------------------------------------0-0-0-3-3---3-0--------|
E|-------------------1-1-1-1-1-1-1-1--3-3-3-3-3-3-3-3-------------------------|

Verse (Am F G Am)
G|----------------------------------------------------------------------------|
D|----------------------------------------------------------------------------|
A|--0-0-0-0-0-0-0-0--------------------------------------0-0-0-0-0-0-0-0------|
E|-------------------1-1-1-1-1-1-1-1--3-3-3-3-3-3-3-3-------------------------|x2

G|----------------------------------------------------------------------------|
D|-----------------------------------------------------------------2----------|
A|--0-0-0-5-5-5-0-0--------5-5-5------------5-5-5--------0-0-0-3-3---3-0------|
E|-------------------1-1-1-------1-1--3-3-3-------3-3-------------------------|

G|----------------------------------------------------------------------------|
D|----------------------------------------------------------------------------|
A|--0-0-0-5-5-5-0-0--------5-5-5------------5-5-5--------0-0------------------|
E|-------------------1-1-1-------1-1--3-3-3-------3-3----------3-3----1-1-----|


Chorus (F  C   G  Dm)
G|----------------------------------------------------------------------------|
D|----------------------------------------------------------------------------|
A|---------3--3----------5--5-------------------------------------------------|
E|--1--1----------3--3--------------------------------------------------------|

(F  C  G  G)
G|--------------------------------------------------|
D|------------------------2-------------------------|
A|-------0-3-0----3--3--3---3-0---------------------|
E|-1--1--------3-----------------3-3-3-3-3-3-3-3----|



| /  slide up
| \  slide down
| h  hammer-on
| p  pull-off
| ~  vibrato
| +  harmonic
| x  Mute note
===============================================================================

            
            
Suggest correction
Creating personal tab
Creating personal tab
You can edit any tab online and save it as your Personal.

You can edit, replace or remove any tab part or add personal notes – all changes will be seen only by you.

Personal tabs can be accessed anytime from any device, even offline.
Learn more »
comments
print report bad tab
2 comments total.
0 reply
Bassin Hodgey 41 Jan 30, 2009 01:03 AM

pretty decent job.

0 reply
ustabawannab 10 May 03, 2013 03:08 AM

not even close

guest
You may want to rate the tab now too:
select rating
Wanna post a correction for this tab? Suggest correction