Oops, an error
Loading. Please wait.

Break Up Song Chords

version 2
version 2

Whole song

Interactive

58,950 views 129 this week
3 commentsread comments
1 2 3 4 5
worth learning
x 10
add to favorites
launch autoscroll
font size
0
reset
transpose
0
reset
display chords
guitar tuner
Tab Pro tools
  • play this tab
  • loop segment
  • change instrument
  • show fretboard
  • metronome
×
Best way to learn
"Break Up Song"
Autoscroll
slow
fast
+/-
esc
set tempo
stop
Contributor
-----------------------------------------------------------------------
                  The Break Up Song - Greg Kihn Band
-----------------------------------------------------------------------
Tabbed by: Brent Jacque 
Email: sxviper700triple@hotmail.com

Tuning: E A D G B E (standard)

Here is my 2nd version of this song, I found a few big mistakes 
in my other version, I sat down with it and figured it out right, 
this intro should be pretty close to 100% 


Intro:                                            x2
         Am         F       G         Am
e|---------------------------------------------------------------------|
B|----------0-1-------1-0-------------1--------------------------------|
G|--------2---------2-----------0-----2--------------------------------|
D|------2---------3-----------0-------2--------------------------------|
A|----0---------3-----------2---------0--------------------------------|
E|------------------------3--------------------------------------------|

Then the singing starts, with, to me, sounds like muted chords, they 
are Am, F and G, here are the lyrics adn chords:

Am               F                   G
We had broken up for good just an hour before

Uh uh uh, uh uh uh uh uh

Am                    F                         G 
Now I'm staring at the bodies as there's dancin' 'cross the floor

Uh uh uh, uh uh uh uh uh

Am                     F                         G
And then the band slowed the tempo and the music gets me down

Uh uh uh, uh uh uh uh uh

(Play Intro Over Again)
It was the same old song with the melancholy sound

Uh uh uh, uh uh uh uh uh

(Listen for strumming)
Am                     F
They don't write 'em like that anymore

They just don't write 'em like that anymore


Am                F                 G
We'd been living together for a million years

Uh uh uh, uh uh uh uh uh

Am                F                   G
But now it feel so strange (out in the atmospheres?)

Uh uh uh, uh uh uh uh uh


(Play Intro Over again)
And then the jukebox plays a song I used to know

Uh uh uh, uh uh uh uh uh

Now I'm staring at the bodies as they dancin' so slow

Uh uh uh, uh uh uh uh uh

(Listen for Strumming)
Am                     F    
They don't write 'em like that anymore

They just don't write 'em like that anymore


Am               F               G
Now I wind up staring at an empty glass

Uh uh uh, uh uh uh uh uh

Am                  F                     G
Cause its so easy to say that you'll forget your past

Uh uh uh, uh uh uh uh uh

(Play Intro Over again)
They don't write 'em like that anymore, no!

They just don't write 'em like that anymore

(Listen for how many times to play the intro over)
They don't write 'em like that anymore

They just don't write 'em like that anymore 
(Play Intro and fade out)


Thats pretty much it, any comments or corrections, 
you can e-mail me @ the address above
comments
print report bad tab
3 comments total.
0 reply
Droquen wrote on June 29 2009, 01:06 pm

Wrong.

0 reply
moleboy wrote on August 29 2014, 11:03 pm

Intro:

e|---------------------------------------|
B|-------0-1---------0-1-------0-----1---|
G|------2----------2---------0---2---2---|
D|-----2---------3---------0---------2---|
A|---0---------3---------------------0---|
E|---------------------------------------|

I'm not much on tabs but your version was definitely not right for the intro, very close but you messed up the third group of notes there as far as the rest good job!

0 reply
chodiechink wrote on July 8 2015, 11:07 am

You also missed a note at the end there.

e|---------------------------------------0---|
B|-------0-1---------0-1-------0---------1---|
G|------2----------2---------0---2---0---2---|
D|-----2---------3---------0-------------2---|
A|---0---------3-------------------------0---|
E|-------------------------------------------|

I want to post or [tab]
guest
You may want to rate the tab now too:
select rating
Please do not post tabs as comments. Select "correction" instead!