Oops, an error
Loading. Please wait.

Standing On Shakey Ground Tab

18,132 views 12 this week
no commentswrite comment
1 2 3 4 5
please rate
add to favorites
launch autoscroll
font size
0
reset
how to read this tab
guitar tuner
Autoscroll
slow
fast
+/-
esc
set tempo
stop
Help us to improve Ultimate-Guitar.com Take our survey!
×
Author
-------------------------------------------------------------------------------
                             Standing ON Shakey Ground- Greg Koch
-------------------------------------------------------------------------------
Tabbed by:Redhouse7
Email:ezlife@mchsi.com


Tuning:Standard
Intro:
e|-------------------------------------------------------------------------|
B|-------------------------------------------------------------------------|
G|-------------------------------------------------------------------------|
D|----------------------------------------------2~~~~~~~~~~----------------|
A|------7-4-5----------------7-4-5-----(4)---------------------------------|
E|12/0-------------------0-0--------------3-(0)----------------------------|

e|-------------------------------------------------------------------------|
B|-------------------------------------------------------------------------|
G|-------------------------------------------------------------------------|
D|----------------------------------------------2~~~~~~~~~~----------------|
A|------7-4-5----------------7-4-5-----(4)---------------------------------|
E|0-------------------0---------------------3-(0)--------------------------|

e|-------------------------------------------------------------------------|
B|-------------------------------------------------------------------------|
G|-------------------------------------------------------------------------|
D|----------------------------------------------2~~~~~~~~~~----------------|
A|------7-4-5----------------7-4-5-----(4)---------------------------------|
E|---0-------------------X0---------------3-(0)----------------------------|
                       (Repeat this par 5 more times)
Chorus:

e|------------------------------------------------------x------------------|
B|------------------------------------------------------x------------------|
G|-------4~~~~~~~~~6~~~~~~~~~~7~~~~~~~~~8~~~(9)~~~~~----x------------------|
D|------------------------------------------------------x------------------|
A|--2~~~~~~~~~4~~~~~~~~~5~~~~~~~~~6~~~~~~~~~(7)---------x------------------|
E|------------------------------------------------------x------------------|

e|----------------------------x----10--10--9--8--6--5--x-------------------|
B|----------------------------x------------------------x-------------------|
G|----------------------------x----9---9---8--7--5--4--x-------------------|
D|-----------------2h4---2~~~~x~-----------------------x-------------2h4-2-|
A|---2-----2h4----------------x------------------------x--2---2h4----------|
E|----------------------------x------------------------x-------------------|

After this it repeats the versus and the chrouses and ten goes into an insane solo.
i'm workin on it, don't know it all yet, but i know it uses the A penatonic, hope this helps!!

www.gregkoch.com

| /  slide up
| \  slide down
| h  hammer-on
| p  pull-off
| ~  vibrato
| +  harmonic
| x  Mute note
===============================================================================
http://www.gregkoch.com/
Suggest correction
Give kudos to tab author, rate the tab!
1 2 3 4 5
comments
print report bad tab
guest
You may want to rate the tab now too:
select rating
Wanna post a correction for this tab? Suggest correction