Oops, an error
Loading. Please wait.

Sing Theresa Says tab

version 2
version 2

Whole song

2,362 views 1 this week
no commentswrite comment
1 2 3 4 5
3 more votes to show rating
add to favorites
×
Save as Personal and add changes to this tab that will be seen only by you. Learn more ›
×
You can save this tab as Personal to edit and correct it or add notes. All changes will be seen only by you. Learn more »
launch autoscroll
font size
0
reset
how to read this tab
guitar tuner
edit
Autoscroll
slow
fast
+/-
esc
set tempo
stop
Difficulty
Sing Theresa
Greg Laswell
Through Toledo


e|-----------------------------------------------------------------|
B|-----------------------------------------------------------------|
G|-----7-------6------2-------4------------------------------------|
D|-------2x-------2x------2x----2x---------------------------------|10x
A|-----------------------------------------------------------------|
E|---7-------5-------2-------3-------------------------------------|
     Go to sleep while I gateher all my things.....


e|------------------------------------------------------------------|
B|------------------------------------------------------------------|
G|-------11----------11----------4-------7--6-----------------------|
D|-----------6x---------2x----------6x------------------------------|
A|------------------------------------------------------------------|
E|---10----------9-----------3-----------7--5-----------------------|
     Sing Theresa, say sing, happy things.....

  Back to intro.

  I'm not to sure about the rest to thats it so far.
This is pretty much all right, i learned this song by watching him play at a show.

so enjoy!
Suggest correction
Creating personal tab
Creating personal tab
You can edit any tab online and save it as your Personal.

You can edit, replace or remove any tab part or add personal notes – all changes will be seen only by you.

Personal tabs can be accessed anytime from any device, even offline.
Learn more »
Give kudos to tab author, rate the tab!
1 2 3 4 5
comments
print report bad tab
guest
Wanna post a correction for this tab? Suggest correction