Oops, an error
Loading. Please wait.

Made tab

2,906 views 1 this week
no commentswrite comment
1 2 3 4 5
x 3
add to favorites
×
Save as Personal and add changes to this tab that will be seen only by you. Learn more ›
×
You can save this tab as Personal to edit and correct it or add notes. All changes will be seen only by you. Learn more »
launch autoscroll
font size
0
reset
how to read this tab
guitar tuner
edit
Autoscroll
slow
fast
+/-
esc
set tempo
stop
Author
Difficulty
Here are the lyrics, chords and tab for the haunting "Made" by Greg Weeks, as heard on
Adidas Adicolor advert with the weird pink bear.
I've tried to capture it as best I can, which is why some of it might look a little odd.
the second verse there's a moog-ish chord underneath, which is where the strange "A#"
from (a lot easier to fret than it seems). Also, I'm still not sure about the Cmaj7, 
it seems to fit.

Am    x02210
Am11  x00010
A#-9  x2333x
B     x2444x
c     x3555x
Cmaj7 x22010
Dm    xx0231
E     022100


Am Am11 Am
(Intro)

Am                C    B
In silence we're swayed

Am                C    B
A gesture, a wild sashéz

Am                C    B
Can make your today

Am                C    B
And then take it all away


(Instr)
Am  Cmaj7  E

Dm  Em  Am

Am                C    B  A#-9
They made us this way
Am                C    B  A#-9
For what they can never say
Am                C    B  A#-9
Sent us on our way
Am                C    B  A#-9
It's useless to make them pay

Holding ground
Holding ground
Holding ground
Holding ground

Just live for today
Least that's what they try to say
They said that we'd pick
Then they'll take your pain away

Holding ground
Holding ground
Holding ground
Holding ground

So much for today
So much for the days of men
So much is the son
He'll just make it fade away

Holding ground
Holding ground
Holding ground
Holding ground

Intro Tab:

E|------|------|------|------|------|------|------|------|------|
B|------|-1--1-|--1---|-1--1-|--1---|-1--1-|--1---|-1--1-|--1---|
G|------|-2--2-|--2---|-2--2-|--2---|-2--2-|--2---|-2--2-|--2---|
D|----2-|-2--2-|----2-|-2--2-|----2-|-2--2-|----2-|-2--2-|----2-|
A|------|0--0--|0-----|0--0--|0-----|0--0--|0-----|0--0--|0-----|
E|------|------|------|------|------|------|------|------|------|


Verse 1

E|------  |------     |------|------|
B|-1--1-  |--1---     |-5--5-|-4--4-|
G|-2--2-  |--2---     |-5--5-|-4--4-|   x4
D|-2--2-  |----2-     |-5--5-|-4--4-|
A|0--0--  |0-----     |3--3--|2--2--|
E|------  |------     |------|------|
      In  silence we're swayed...

Chorus (and instr)

E|------|-0--0-|-0--0-|--0---|-1--1-|------|------|--0---|
B|-1--1-|-1--1-|-0--0-|--0---|-3--3-|-0--0-|-1--1-|----1-|
G|-2--2-|-0--0-|-1--1-|--1---|-2--2-|-1--1-|-2--2-|------|  x2
D|-2--2-|------|------|------|0--0--|-2--2-|-2--2-|------|
A|0--0--|2--2--|------|----2-|------|------|0--0--|0-----|
E|------|------|0--0--|0-----|------|0--0--|------|------|
  Hold-  ing    Ground        Hold-  ing    Ground...

E|------|------|
B|-1--1-|1-----|
G|-2--0-|02----|
D|-2--0-|02----|
A|0--0--|------|
E|------|------|

Verse 2

E|------|------|------|------|
B|-1--1-|--1---|-5--5-|-4--3-|
G|-2--2-|--2---|-5--5-|-4--3-|   x4
D|-2--2-|----2-|-5--5-|-4--3-|
A|0--0--|0-----|3--3--|2--2--|
E|------|------|------|------|


Last chorus (once as above)

E|------|-0--0-|-0--0-|--0---|-1--1-|------|------|------|
B|-1--1-|-1--1-|-0--0-|--0---|-3--3-|-1--1-|-0--0-|------|
G|-2--2-|-0--0-|-1--1-|--1---|-2--2-|-2--2-|-1--1-|------|
D|-2--2-|------|------|------|0--0--|-2--2-|-2--2-|------|
A|0--0--|2--2--|------|----2-|------|0--0--|------|------|
E|------|------|0--0--|0-----|------|------|0--0--|0-----|
  Hold-  ing    Ground        Hold-                   ing

E|------|--0---|------|------|
B|-1--1-|----1-|-1--1-|1-----|
G|-2--2-|------|-2--0-|02----|
D|-2--2-|------|-2--0-|02----|
A|0--0--|0-----|0--0--|------|
E|------|------|------|------|
  Ground

Song Copyright Greg Weeks (2001) www.gregweeks.net

Transcribed by Paul Anderton (2006)

            
            
Suggest correction
Creating personal tab
Creating personal tab
You can edit any tab online and save it as your Personal.

You can edit, replace or remove any tab part or add personal notes – all changes will be seen only by you.

Personal tabs can be accessed anytime from any device, even offline.
Learn more »
Give kudos to tab author, rate the tab!
1 2 3 4 5
comments
print report bad tab
guest
You may want to rate the tab now too:
select rating
Wanna post a correction for this tab? Suggest correction