Oops, an error
Loading. Please wait.

Landmine Tab

69 views 1 this week
no commentswrite comment
1 2 3 4 5
please rate
add to favorites
launch autoscroll
font size
0
reset
how to read this tab
guitar tuner
Tab Pro tools
  • play this tab
  • loop segment
  • change instrument
  • show fretboard
  • metronome
×
Best way to learn
"Landmine"
Autoscroll
slow
fast
+/-
esc
set tempo
stop
Contributor
Greg Wood www.gregwood.net

I can't take any credit for this tab, apart from the fact that I think it's
tuned down 1/2 a step but it said nothing on the tab.
Absolutely amazing song and really good guitar work here from Greg Wood.

-------------------------------------------------------------------------------
			     LANDMINE - Greg Wood
-------------------------------------------------------------------------------

By:  Greg Wood

								\ = slide down

Intro / (and Chorus Part B, one time):

e|------0-------0-------------------------------------0---------------------0----|
B|------0-------0----------------------0--2--3--------3---3-----------------3----|
G|------6----------6------6\4-------2-----------2-----2------2--------------2----|
D|------7----------------------5\4-----------------0--0---------0-----------0----|
A|---0------0---------0-----------------------------------------0-------0---0----|
E|------------------------------------------------------------------3---3---3----|


Verse (First 3 times):

e|---0----0--0--0----0--0--0--0--0----0--0--0---0------
B|---0----0--0--0----0--0--0--0--0----0--0--0---0------
G|---1----1--2--1----1--2--1--2--1----1--2--1---2------
D|---2----2--2--2----2--2--2--2--2----2--2--2---0------
A|---0----0--0--0----0--0--0--0--0----0--0--0---0------
E|---2----2--2--2----2--2--2--2--2----2--2--2---3------


Verse (4th time):

e|---0----0--0--0----0--0--0--0--0----0--0-----|
B|---0----0--0--0----0--0--0--0--0----0--0-----|
G|---1----1--2--1----1--2--1--2--1----1--1-----|
D|---2----2--2--2----2--2--2--2--2----2--2-----|
A|---0----0--0--0----0--0--0--0--0----0--0-----|
E|---2----2--2--2----2--2--2--2--2----2--2-----|


Chorus Part A (First 3 times):

e|-------0----------------------------------------------
B|-------0----------------------------------------------
G|-------2-----------4---------2----------0-------------
D|---2---2---------2---------0---0------4---4p----------
A|---0---0-------4-----0---0-------0--5--------0--------
E|-----------------------3------------------------------


Chorus Part A (4th time):

e|-------0----------------------------------------------------|
B|-------0----------------------------------------------------|
G|-------2-----------4---------2----------------5h------------|
D|---2---2---------2---------0----------5h--4h------4h---0----|
A|---0---0-------4-----0---0--------5h------------------------|
E|-----------------------3------------------------------------|




Chorus Part C (First two times):

e|-------0----0---0----0----0----0---------0----------------------------------------------|
B|-------0----0---0----0----0----3---------3----------------------------------------------|
G|-------6----6-\-4----4----2----2---------2----------------------------------------------|
D|-------7----7-\-5----5----4----0---------0----------------------------------------------|
A|---0---0----0---0----0----0---------0----0----------------------------------------------|
E|------------------------------------3----3---------------------------------------|


Chorus Part C (Last time)

e|---0----0----0----2--2--2--2--2------|
B|---0----0----3----3--3--3--3--3------|
G|---6----4----2----2--2--2--2--2------|
D|---7----6----0----0--0--0--0--0------|
A|---0----0----0-----------------------|
E|-------------3-----------------------|


Bridge (1st and 3rd time):

e|---0----0--x--0-----0--x--0--x--0-----0--x--0---12----9------
B|---0----0--7--0-----0--7--0--7--0-----0--7--0---x-----x------
G|---6----6--7--6-----6--7--6--7--6-----6--7--6---9-----6------
D|---7----7--7--7-----7--7--7--7--7-----7--7--7---0-----0------
A|---0----0--0--0-----0--0--0--0--0-----0--0--0---0-----0------
E|-------------------------------------------------------------


Bridge (2nd time):

e|---0----0--x--0-----0--x--0--x--0-----0--x--0---12----9---10----
B|---0----0--7--0-----0--7--0--7--0-----0--7--0---x-----x---x-----
G|---6----6--7--6-----6--7--6--7--6-----6--7--6---9-----6---7-----
D|---7----7--7--7-----7--7--7--7--7-----7--7--7---0-----0---0-----
A|---0----0--0--0-----0--0--0--0--0-----0--0--0---0-----0---0-----
E|----------------------------------------------------------------


Bridge (4th time):

e|---0----0--x--0-----0--x--0--x--0-----0--x--0---12----9-----7-----5--------
B|---0----0--7--0-----0--7--0--7--0-----0--7--0---x-----x-----x-----x--------
G|---6----6--7--6-----6--7--6--7--6-----6--7--6---9-----6-----4-----2--------
D|---7----7--7--7-----7--7--7--7--7-----7--7--7---0-----0-----0-----0--------
A|---0----0--0--0-----0--0--0--0--0-----0--0--0---0-----0--------------------
E|---------------------------------------------------------------------------


e|---7-----9-----10----------------------------------------------------------|
B|---x-----x-----0-----------------------------------------------------------|
G|---4-----6-----7-----------------------------------------------------------|
D|---0-----0-----0-----------------------------------------------------------|
A|---------------8-----------------------------------------------------------|
E|---------------------------------------------------------------------------|
comments
We did not receive enough feedback on this tab! Please rate:
print report bad tab
1 2 3 4 5
I want to post or [tab]
guest
You may want to rate the tab now too:
select rating
Please do not post tabs as comments. Select "correction" instead!