Oops, an error
Loading. Please wait.

Quiet Type Tab

18 views 1 this week
no commentswrite comment
1 2 3 4 5
please rate
add to favorites
launch autoscroll
font size
0
reset
how to read this tab
guitar tuner
Autoscroll
slow
fast
+/-
esc
set tempo
stop
Help us to improve Ultimate-Guitar.com Take our survey!
×
-------------------------------------------------------------------------------
			     QUIET TYPE - Greg Wood
-------------------------------------------------------------------------------
www.gregwood.net

By: Greg Wood

								x = muted string
								h = hammered-on
								p = pulled off
								/ = slide up

Intro:

e|----------------------------------0--------|
B|----------------------0-1-0-------0--------|
G|------1-2-1-----1----0------------0--------|
D|-----2--------2-----2---------3---3--------|
A|----2-------0------3--------3-----3--------|
E|---0----------------------------1----------|


Verse "A":

e|--0--0--0--0------0-----0--0--0--0-----------2---5---------------------------|
B|--3--3--3--3------0-----3--3--3--3----3--2---2---5---------------------------|
G|--2--2--2--2------1-----0--0--0--0----2--2---2---6--------------------4---2--|
D|--0--0--0--0---0--0-----0--0--0--0----0--0---0---0-----9--9--9-----7--2---1--|
A|--0--0--0--0---4--0-----3--3--3--3---------------------7-----7--4--4--0---0--|
E|------------------3---------------------------------------7--0--2------------|


Verse "B":

e|--0----0---0----0-------0-------0---0-------|
B|--0----0---0----0-------0-------0---0-------|
G|--6----8---8----9-------9-------4---1-------|
D|--6----9---9----9---2---9---2---2---2-------|
A|--4----6---6----7---2---7---2---0---0-------|
E|-----------7--------0-------0---------------|


"Nothing could have been done...": 

e|--0--0--0--0--0---0-----|
B|--0--0--0--0--0---0-----|
G|--6--6--4--4--4---4-----|
D|--6--6--4--4--2---2-----|
A|--4--4--2--2--0---0-----|
E|------------------------|


Chorus:

e|--0---0---0---0---0----0--0--2----0---0---0---0---0---0-------|
B|--0---0---0---0---0----0--2--3----0---0---0---0---0---0-------|
G|--9---x---11--x---4----1--2--2----9---x---11--x---4---1-------|
D|--9---9---11--9---2----2--2--0----9---9---11--9---2---2-------|
A|--7---9---9---9---0----2--0--0----7---9---9---9---0---0-------|
E|------7-------7--------0--------------7-------7---------------|


Main Solo Chords:					

e|--2--4h--2p--0p--0--------0---0---2---0---..
B|-----------------0--------0---0---3---0---..
G|-----------------2--------1---1---2---2---..
D|-----------------2--------2---2---0---2---..
A|-----------------0--------2---0---0---0---..
E|--------------------------0---2-----------..


Solo Melody:

e|----------------------12--13---12--10--9---10--12--------
B|--9---9---10--12--12-------------------------------12----
G|----------------------9---11---9---7---6---7---9---------
D|--6---6---7---9---9--------------------------------9-----
A|---------------------------------------------------------
E|---------------------------------------------------------


e|----------------------12--13---12--10--9---10--12--12---14/16----|
B|--9---9---10--12--12---------------------------------------------|
G|----------------------9---11---9---7---6---7---9---9----11/13----|
D|--6---6---7---9---9----------------------------------------------|
A|-----------------------------------------------------------------|
E|-----------------------------------------------------------------|


Bridge:

e|--0---0-----0----0-----7----12-----0---0-----0----0-----9----12-----
B|--0---0-----0----0-----0----0------0---0-----0----0-----7----14-----
G|--9---x-----11---x-----6----13-----9---x-----11---x-----7----14-----
D|--9---9-----11---9-----7----14-----9---9-----11---9-----0----0------
A|--7---9-----9----9-----0----0------7---9-----9----9-----------------
E|------7----------7---------------------7----------7-----------------


e|--0---0-----0----0-----7----12-----0---0-----0----0-----9----12----9----14--
B|--0---0-----0----0-----0----0------0---0-----0----0-----7----14----7----14--
G|--9---x-----11---x-----6----13-----9---x-----11---x-----7----14----7----14--
D|--9---9-----11---9-----7----14-----9---9-----11---9-----0----0-----0----0---
A|--7---9-----9----9-----0----0------7---9-----9----9-------------------------
E|------7----------7---------------------7----------7-------------------------


e|--9----16----9----17-----|
B|--7----14----7----14-----|
G|--7----14----7----14-----|
D|--0----0-----0----0------|
A|-------------------------|
E|-------------------------|

Ending:

e|--0----0----0----0----2----0----0----|
B|--0----0----0----0----3----2----0----|
G|--9----x----11---x----2----2----1----|
D|--9----9----11---9----0----2----2----|
A|--7----9----9----9---------0----2----|
E|-------7---------7--------------0----|
Suggest correction
Give kudos to tab author, rate the tab!
1 2 3 4 5
comments
print report bad tab
guest
You may want to rate the tab now too:
select rating
Please do not post tabs as comments. Select "correction" instead!