Oops, an error
Loading. Please wait.

Unsafe Tab

67 views 1 this week
no commentswrite comment
1 2 3 4 5
please rate
add to favorites
launch autoscroll
font size
0
reset
how to read this tab
guitar tuner
Autoscroll
slow
fast
+/-
esc
set tempo
stop
Help us to improve Ultimate-Guitar.com Take our survey!
×
Author
#----------------------------------PLEASE NOTE--------------------------------#
#This file is the author's own work and represents their interpretation of the#
#song. You may only use this file for private study, scholarship, or research.#
#-----------------------------------------------------------------------------#
#-- File created with Instab - http://www.pconline.com/~smcarey/instab.html --#
#-----------------------------------------------------------------------------#

Author/Artist: Greg Wood  www.gregwood.net
Title: Unsafe
Transcribed by: Andrew Biles
Email: andrewbiles@hotmail.com

-----------------------------------------0------------------------------------
-----------5----------2------------------x------------------------------------
-----4---6-6------4-----4---4------2-----2------------------------------------
---6---6--------4---4-----4------2---2-2--------------------------------------
-4------------2----------------0----------------------------------------------
------------------------------------------------------------------------------
 0:00                                                                         

-4------0------0--------------------------------------------------------------
-5------0------0--------------------------------------------------------------
-4------4------2--------------------------------------------------------------
-6------4------2--------------------------------------------------------------
-4------2------0--------------------------------------------------------------
------------------------------------------------------------------------------
 0:12                                                                         

-----------------------------------------0-|-0------0------0-------5----------
-----------5----------2------------------x-|-0------0------0-------5----------
-----4---6-6------4-----4---4------2-----2-|-6------4------2-------2----------
---6---6--------4---4-----4------2---2-2---|-6------4------2------------------
-4------------2----------------0-----------|-4------2------0------------------
-------------------------------------------|----------------------------------
 0:33                                repeat|strum           "...to know"      

-4------0------0--------------------------------------------------------------
-5------0------0--------------------------------------------------------------
-4------4------2--------------------------------------------------------------
-6------4------2--------------------------------------------------------------
-4------2------0--------------------------------------------------------------
------------------------------------------------------------------------------
 1:03                                                                         

--------0---------0------0-0-0-|-0------0------0------5-----------------------
--------0---------0------0-0-0-|-0------0------0------5-----------------------
--------6---------4----2-2-2-2-|-6------4------2------2-----------------------
-6-6--6-6--4-4--4-4--2-2-2-2-2-|-6------4------2------------------------------
-4-4--4-4--2-2--2-2--0-0-0-0-0-|-4------2------0------------------------------
-------------------------------|----------------------------------------------
 1:23                            1:38               1:50                      

-4------0------0--------------------------------------------------------------
-5------0------0--------------------------------------------------------------
-4------4------2--------------------------------------------------------------
-6------4------2--------------------------------------------------------------
-4------2------0--------------------------------------------------------------
------------------------------------------------------------------------------
 1:52                                                                         

-----------0------------0------------0----------------------------------------
-----------0------------0------------0----------------------------------------
-----6---6-6------4---4-4------2---2-2----------------------------------------
---6---6--------4---4--------2---2--------------------------------------------
-4------------2------------0--------------------------------------------------
------------------------------------------------------------------------------
 sounds like with the chords strummed underneath                              

-0------0------0-|-4------0------0--------------------------------------------
-0------0------0-|-5------0------0--------------------------------------------
-6------4------2-|-4------4------2--------------------------------------------
-6------4------2-|-6------4------2--------------------------------------------
-4------2------0-|-4------2------0--------------------------------------------
-----------------|------------------------------------------------------------

any questions? andrewbiles@hotmail.com
___________________________________________________


By: Greg Wood


Intro A/Verse 1A:

e|------------------------------------------------0------|
B|-----------0----------------2-------------------0------|
G|-------6-----6----------4-----4-----------2-----2------|
D|-----6---------6------4---------4-----------2----------|
A|---4-----4-------4--2-----2-------2--0--0-----0--------|
E|-------------------------------------------------------|


Intro B/Chorus:

e|---0----0----0----0----0----0----0-----|
B|---0----0----0----0----0----0----0-----|
G|---2----1----6----2----1----4----2-----|
D|---2----2----6----2----2----4----2-----|
A|---0----2----4----0----2----2----0-----|
E|--------0--------------0---------------|


Verse 1B/Verse 2B (Build):

e|---0-----5-----|
B|---0-----5-----|
G|---2-----5-----|
D|---2-----7-----|
A|---0-----0-----|
E|---------------|


Verse 2A (palm muting)                             4th Time:

e|-------------0--------------2----------------0---...----0----0----0------|
B|-------------0--------------2----------------0---...----0----0----0------|
G|-------------6--------------4---------2------2---...----6----4----2------|
D|-------------6--------------4-----------2--------...----6----4----2------|
A|---4-4---4---4----2-2---2---2----0--0-----0------...----4----2----0------|
E|-------------------------------------------------...---------------------|


Bridge ("I was talking...")                     4th Time:

e|-----------0------------0--------------0------...----0----0----0-------|
B|-----------0------------0--------------0------...----0----0----0-------|
G|-----------1--------6---6--------2-----2------...----1----4----2-------|
D|-------2----------6----------------2----------...----2----4----2-------|
A|-----2----------4-----4-----0--0-----0--------...----2----2----0-------|
E|---0-----0------------------------------------...----0-----------------|
Suggest correction
What's this?
You can suggest a correction to this tab. Community and Mods will review your correction and vote to approve or reject it.
comments
We did not receive enough feedback on this tab! Please rate:
print report bad tab
1 2 3 4 5
guest
You may want to rate the tab now too:
select rating
Please do not post tabs as comments. Select "correction" instead!