Oops, an error
Loading. Please wait.

Alles Wird Gut chords

643 views 18 this week
3 commentsread comments
1 2 3 4 5
x 3
add to favorites
×
Save as Personal and add changes to this tab that will be seen only by you. Learn more ›
×
You can save this tab as Personal to edit and correct it or add notes. All changes will be seen only by you. Learn more »
launch autoscroll
font size
0
reset
transpose
0
reset
simplify chords
display chords
guitar tuner
edit
Autoscroll
slow
fast
+/-
esc
set tempo
stop
Author
Difficulty
About this tab version
I tried to write and arrange this wonderful piece for playing on acoustic guitar. Enjoy it. Was this info helpful? Yes No
Strumming
There is no strumming pattern for this song yet. and get +5 IQ
Alles wird gut - Gregor Meyle

https://youtu.be/w2syssybKt8

[Intro]

               F          Bb         F                      Bb        
e|-----------|----------|----------|----------|-----------|----------|
B|-----------|-1--------|-3--------|-1--------|3h4-3h4-3h4|-6--3-----|
G|2h3-2h3-2h3|-2--2-----|-3--3-----|-2--2-----|-----------|-3-----3--|
D|-----------|-------3--|-------3--|-------3--|-----------|-3--------|
A|-----------|----------|-1--------|----------|-----------|----------|
E|-----------|-1--------|----------|-1--------|-----------|----------|

   Cm         Dm         Gm         D         
e|-3--------|-5--------|-6--------|-5--------|----------|
B|-4--4-----|-6--6-----|-8--8-----|-7--7-----|----------|
G|----5--5--|----7--7--|-7-----7--|-------7--|----------|
D|-------5--|-------7--|-5--------|----------|-12+------|
A|-3--------|-5--------|----------|-5--------|-12+------|
E|----------|----------|----------|----------|----------|

[Verse]
D              A/C#         Bm       Dsus4/G
Fragst du dich manchmal, warum es so ist?
    D         Bm          Dsus4/G
Wir leben und sterben – gewiss.
D              A/C#           Bm           Dsus4/G
Freust du dich manchmal, wenn du nichts vermisst?
    D            Bm          Dsus4/G
Man nennt es die Stunden des Lichts.
D                         A         F#m7
Schwermut verschwindet im zeitlosen Raum.
Bm                       A
Kostbar ist das was  uns bleibt.

[Chorus]
        G  D/F#  Asus4   A
Nur die Liebe    zählt.
               G  D/F#      Bm           Asus4   
Es ist nur die Liebe,   die uns manchmal fehlt.
       G   D/F#   A             Bm
Es ist nie zu     spät, dran zu glauben.
G     Asus2  D
Alles wird   gut.

[Verse]
D               A/C#         Bm          Dsus4/G              
Träumst du denn manchmal von Frieden und Glück?
      D            Bm         Dsus4/G
Gibst du auch manchmal was zurück?
D            A/C#     Bm           Dsus4/G
Bist du noch dankbar, dass es dich gibt?
    D               Bm       Dsus4/G
Die Welt bleibt für immer verrückt.
D                         A         F#m7
Schwermut verschwindet im zeitlosen Raum.
Bm                      A
Kostbar ist das was uns bleibt.

[Chorus]
        G  D/F#  Asus4   A
Nur die Liebe    zählt.
               G  D/F#    Bm           Asus4   
Es ist nur die Liebe, die uns manchmal fehlt.
       G   D/F#  A             Bm
Es ist nie zu    spät, dran zu glauben.
G     Asus2   D
Alles wird    gut.

[Interlude]

                            F          Bb         F                      Bb        
e|--12+-------|-----------|----------|----------|----------|-----------|----------|
B|-7+---------|-----------|-1--------|-3--------|-1--------|3h4-3h4-3h4|-6--3-----|
G|5+--7+------|2h3-2h3-2h3|-2--2-----|-3--3-----|-2--2-----|-----------|-3-----3--|
D|-----7+-----|-----------|-------3--|-------3--|-------3--|-----------|-3--------|
A|------7+-12+|-----------|----------|-1--------|----------|-----------|----------|
E|-------7+---|-----------|-1--------|----------|-1--------|-----------|----------|

   Cm         Dm         Gm         D         
e|-3--------|-5--------|-6--------|-5--------|----------|
B|-4--4-----|-6--6-----|-8--8-----|-7--7-----|----------|
G|----5--5--|----7--7--|-7-----7--|-------7--|----------|
D|-------5--|-------7--|-5--------|----------|-12+------|
A|-3--------|-5--------|----------|-5--------|-12+------|
E|----------|----------|----------|----------|----------|

h= Hammer on
+= Natural Harmonic

[Chorus]
        G  D/F#  Asus4   A
Nur die Liebe    zählt.
               G  D/F#    Bm           Asus4   
Es ist nur die Liebe, die uns manchmal fehlt.
       G   D/F# A             Bm       G   D
Es ist nie zu   spät, dran zu glauben.
        A              Bm
Oh - du musst nur dran glauben.
G     Asus2   D
Alles wird    gut.

            
            
Suggest correction
Creating personal tab
Creating personal tab
You can edit any tab online and save it as your Personal.

You can edit, replace or remove any tab part or add personal notes – all changes will be seen only by you.

Personal tabs can be accessed anytime from any device, even offline.
Learn more »
Give kudos to tab author, rate the tab!
1 2 3 4 5
comments
print report bad tab
3 comments total.
0 reply
michaelsmartd 24 Jan 28, 2017 06:44 AM, edited at 06:50 pm

some Parts i play a bit different,i am a Bloody Beginner but it inspire me.
a great Song and correct Tab

0 reply
4ndyF 489 Jan 29, 2017 11:33 AM

What I still have to do, is writing tabs for the intro and interlude.

0 reply
4ndyF 489 Feb 05, 2017 04:26 PM

It´s done!

guest
You may want to rate the tab now too:
select rating
Wanna post a correction for this tab? Suggest correction