Oops, an error
Loading. Please wait.

Kannst Du Mich Verstehen chords

769 views 9 this week
no commentswrite comment
1 2 3 4 5
x 4
add to favorites
×
Save as Personal and add changes to this tab that will be seen only by you. Learn more ›
×
You can save this tab as Personal to edit and correct it or add notes. All changes will be seen only by you. Learn more »
launch autoscroll
font size
0
reset
transpose
0
reset
simplify chords
display chords
guitar tuner
edit
Autoscroll
slow
fast
+/-
esc
set tempo
stop
Strumming
There is no strumming pattern for this song yet. and get +5 IQ
Kannst du mich verstehen

Capo +3

[Intro]

   G                               C                            Em  
e|----------5--------------5----|----------5--------------5----|----------5--------------5----|
B|-------------3--------------3-|-------------3--------------3-|-------------3--------------3-|
G|-------0--------------0-------|-------0--------------0-------|-------0--------------0-------|
D|----4--------------4----------|----4--------------4----------|----4--------------4----------|
A|------------------------------|-3--------------3-------------|------------------------------|
E|-3--------------3-------------|------------------------------|-0--------------0-------------|


   C             
e|----------5--------------5----|
B|-------------3--------------3-|
G|-------0--------------0-------|
D|----4--------------4----------|
A|-3--------------3-------------|
E|------------------------------|

[Verse]
(same picking as Intro)
            G
Sag mir, Du brauchst mich,
            C
Sag mir nur wann und wo,
          Em                C
Ich werde da sein in Deiner Welt,
            G
Sag mir, Du willst mich,
              C
Sag das nicht einfach so,
               Em                   C
Denn ich werde schwach sein und Dir vertrau'n,


[Prechorus]
(Em, C same as Intro!)
                 Em
Ich werd' nicht kämpfen,
             Cadd9
Weil Du mich besiegen wirst,
              G
Ich bin schon verlor'n
              Dsus2
Wenn ich Dich seh',


[Chorus]
          Cadd9
Siehst Du mich?
          Em
Willst Du mich?
          Dsus2
Kennst Du mich?
                      Cadd9
Und kannst Du mich versteh'n?
          Cadd9
Siehst Du mich?
          Em
Willst Du mich?
          Dsus2
Kennst Du mich?
                      Cadd9
Und kannst Du mich versteh'n?


[Verse] 
            G
Wenn du bei mir bist,
                C 
schwimm` ich in purem Glück,
             Em              C
Es ist unsre Insel und unser Meer,
               G
Ich werd` dich halten, 
                    C
ich lass dich nicht untergeh`n,
             Em
Solang du zu mir stehst, 
           C
und unsrer Welt


[Prechorus] 
                Em
Ich werd' nicht kämpfen,
             Cadd9
Weil Du mich besiegen wirst,
              G
Ich bin schon verlor'n
              Dsus2
Wenn ich Dich seh',


[Chorus]
          Cadd9
Siehst Du mich?
          Em
Willst Du mich?
          Dsus2
Kennst Du mich?
                      Cadd9
Und kannst Du mich versteh'n?
          Cadd9
Siehst Du mich?
          Em
Willst Du mich?
          Dsus2
Kennst Du mich?
                   Cadd9
Und kannst Du mich versteh'n?


[Bridge]
Am                             G/B
Deine Ängste schmeiß' ich raus,
                          C
Deine Zweifel lösch' ich aus,
                          Gsus4/C          
Meine Sehnsucht, das bist Du,                           =(x30010) (also called open C)
                           Am
Wir müssen glauben was wir tun,
                                G/B
Ich schaff's niemals mehr allein,
                           Cadd9
Du musst mehr als bei mir sein,
Cadd9
Du musst mich jetzt versteh'n,
N.C.
Dann kannst du uns're Zukunft seh'n...

[Solo]
            G                 C                 Em                 C
e|----------------|-----------------|-----------------|------------------|
B|-0--1-1/3-3--0--|--0--1-1/3-3--5--|--0--3--0--3--0--|----8-7-----5--3--|
G|----------------|-----------------|-----------------|------------------|
D|-0--2-2/4-4--0--|--0--2-2/4-4--5--|--0--4--0--4--0--|-4/9-9--2/5----4--|
A|----------------|--------------3--|-----------------|------------3-----|
E|-------------3--|-----------------|-----------0-----|------------------|

[Prechorus]
                 Em
Ich werd' nicht kämpfen,
             C
Weil Du mich besiegen wirst,
              G
Ich bin schon verlor'n
              Dsus2
Wenn ich Dich seh',


[Chorus]
          Cadd9
Siehst Du mich?
          Em
Willst Du mich?
          Dsus2
Kennst Du mich?
                      Cadd9
Und kannst Du mich versteh'n?
          Cadd9
Siehst Du mich?
          Em
Willst Du mich?
          Dsus2
Kennst Du mich?
                      Cadd9         
Und kannst Du mich versteh'n?
Suggest correction
Creating personal tab
Creating personal tab
You can edit any tab online and save it as your Personal.

You can edit, replace or remove any tab part or add personal notes – all changes will be seen only by you.

Personal tabs can be accessed anytime from any device, even offline.
Learn more »
comments
print report bad tab
guest
You may want to rate the tab now too:
select rating
Wanna post a correction for this tab? Suggest correction