Oops, an error
Loading. Please wait.

Solang Ich Dran Glaube chords

1,102 views 15 this week
no commentswrite comment
1 2 3 4 5
x 7
add to favorites
×
Save as Personal and add changes to this tab that will be seen only by you. Learn more ›
×
You can save this tab as Personal to edit and correct it or add notes. All changes will be seen only by you. Learn more »
launch autoscroll
font size
0
reset
transpose
0
reset
simplify chords
display chords
guitar tuner
edit
Autoscroll
slow
fast
+/-
esc
set tempo
stop
Strumming
There is no strumming pattern for this song yet. and get +5 IQ
Solang ich dran glaube

Capo: +3

[Intro]

   G            Am7/G        D/F#        G            C          Em7         Am7        D
e|-----3------------3-------|----------------3-------|--------------------------|-------------2-------|
B|-0-----0------0h1---1-----|3---3-------0-----0-----|5-------5--3------3----3--|-------3---3---3-----|
G|---------0------------0---|2-2---2---2---------0---|----------------0---------|-5\4---2-2-------2\0-|
D|-0-0-------0--0h2-------2-|--------0---0-0-------0-|5---5---5--4--4-----------|-------0-------------|
A|--------------------------|------------------------|3-------------------------|---------------------|
E|-3------------3-----------|2-----------3-----------|-----------0-----------5--|---------------------|


   C           B7           Em    B7  A7           Cadd9       G/B         D            G         
e|-----------------------|------------------------|------------------------|-----------------3--------|
B|-5-------5-5/7------7--|7/8---8\7---2-----2-----|3-------3---3-----------|3------------0-----0------|
G|-----------------------|----------------0---0---|0---0-------0---0---0---|2-2h4p2p0h2--0-------0----|
D|-5---5---5-5/7---7-----|7/9---9\7---2-2---------|------------------------|0--------------0-------0--|
A|-3---------------------|------------0-----------|3-----------0h2---------|--------------------------|
E|-------------7---------|--0---------------------|------------------------|-------------3------------|

[Verse]
    G      Am7/G         D/F#   G
Ich treibe hinaus, auf's off`ne Meer
     C           Em7
Noch Wind in den Segeln
        Am7      D
Nur das Herz ist schwer
     C              B7
Ich will noch nicht umkehren
     Em           B7  A7
oder kentern in rauer See
  Cadd9         G/B          D               G      G  Am7/G  D  G
Solang ich dran glaube, kann ich nicht untergeh'n

[Verse]
     G                Am7/G   D/F#  G    
Mein Schiff war schon oft in großer Not
         C             Em7          Am7   D
Schwimmt sanft auf den Wellen, mein Segelboot
     C          B7
Die Götter sind gnädig,
     Em             B7  A7
Kann Land schon vor mir seh`n
  Cadd9         G/B           D        G           G   C   G  
Solang ich dran glaube, kann ich nicht untergeh'n

[Chorus]
         Cadd9        Em7     D
Niemand sagt, es wäre einfach
         C       A7/C#   D   Dsus4   D
Manchmal hilft's naiv zu sein
            B7                           Em        D   A7
Die größten Fehler machst du doppelt und dreifach
        Cadd9                         D    Dsus2   D
Und die schlimmsten siehst du zu spät ein.

[Verse]
G             Am7/G     D/F#     G
Sehnsucht ist Fluch und Segen zugleich.
    C          Em7          Am7     D
Nur selten beruhigt einen Zufriedenheit.
    C                B7              
Ich will noch nicht umkehren
     Em          B7   A7
oder kentern in rauer See
   Cadd9        G/B          D              G     G   C   G
Solang ich dran glaube, kann ich nicht untergeh'n

[Chorus]
         Cadd9        Em7     D
Niemand sagt, es wäre einfach
         C       A7/C#   D   Dsus4   D
Manchmal hilft's naiv zu sein
            B7                           Em        D   A7
Die größten Fehler machst du doppelt und dreifach
        Cadd9                         D    Dsus2   D
Und die schlimmsten siehst du zu spät ein.


[Interlude]
 Cadd9  G/B  Am7    D   D
Ooh,    ooh, yeeah, ooh
 Cadd9  G/B   A7    D   Dsus2   D
ooh,    aah, yeeah, ooh

[Chorus]
         Cadd9        Em7     D
Niemand sagt, es wäre einfach
         C       A7/C#   D   Dsus4   D
Manchmal hilft's naiv zu sein
            B7                           Em       D   A7
Die größten Fehler machst du doppelt und dreifach
        Cadd9                           D    Dsus2   D
Und die schlimmsten siehst du zum Glück ein.

[Verse]
    G      Am7/G         D/F#   G
Ich treibe hinaus, auf's off'ne Meer
     C            Em7     
Noch Wind in den Segeln
         D/F#    G
und mein Herz im Meer.

            
            
Suggest correction
Creating personal tab
Creating personal tab
You can edit any tab online and save it as your Personal.

You can edit, replace or remove any tab part or add personal notes – all changes will be seen only by you.

Personal tabs can be accessed anytime from any device, even offline.
Learn more »
comments
print report bad tab
guest
You may want to rate the tab now too:
select rating
Wanna post a correction for this tab? Suggest correction