Oops, an error
Loading. Please wait.

Black Blue chords

4,604 views 42 this week
no commentswrite comment
1 2 3 4 5
x 10
add to favorites
×
Save as Personal and add changes to this tab that will be seen only by you. Learn more ›
×
You can save this tab as Personal to edit and correct it or add notes. All changes will be seen only by you. Learn more »
launch autoscroll
font size
0
reset
transpose
0
reset
simplify chords
display chords
guitar tuner
edit
Autoscroll
slow
fast
+/-
esc
set tempo
stop
Strumming
There is no strumming pattern for this song yet. and get +5 IQ
Tuning: Standard
Capo: 2nd fret

[Chords]
         (*G)
    G   G6sus   F     C     Am   D   Dsus  B7
e|-------------(1)----0-----0----2-----3------|
B|--0-----1-----1-----1-----1----3-----3----0-|
G|--0-----0-----2-----0-----2----2-----2----2-|
D|--0-----2-----3-----2-----2----0-----0----1-|
A|-(2)----------3-----3-----0---------------2-|
E|--3-----3-----1-----3-----------------------|

[Intro]
G  G6sus  G  G6sus  F  C  F  C  G  G6sus  G  G6sus
Am  C  G  G6sus  G  G6sus  Am  C  G  G6sus G

[Verse]
G                G G  G     
I see boxes…
F          C
Fills up a room,
F                      C              G          G G
All the things i never told you still glooming.
      G          G G          G
And i try though, i try though.
F             C            G   G   G
Talking never seems to do it.
Am                           C                       G     G  G
I miss the taste of you, red hearts and the dust of june
  Am                   C (hold)
Oh i miss the taste of you…

[Instrumental]
e|-------------------------------------------------------|
B|----------------3--3--3--------------3—5b(6)---3-------|
G|------0--2/4--------------4s\2---0---------------------|
D|-0h2---------------------------------------------------|
A|-------------------------------------------------------|
E|-------------------------------------------------------|

[Verse]
    G          G G   G  
The night now,    
       F           C
It’s as dark as the crows,
     F              C           G      G     G
That call me in the discernment above…
           Am               C
Still they won’t let me be
Am                  C
    Two hearts gone black and blue
        Am              C            G    G    G
Oh they won’t let me be…    closer to you

[Solo]
G  G6sus  G  G6sus  F  C  F  C  G  G6sus  G  G6sus
Am  C  G  G6sus  G  G6sus  Am  C  G  G6sus G G6sus G G6sus G
  
e|-------------------------------------------3-------|
B|------------3----5--3--------------3—5b(6)----5----|
G|------0--/4------------4\2---0---------------------|
D|-0h2-----------------------------------------------|
A|---------------------------------------------------|
E|---------------------------------------------------|

e|---------3-----------------------------------------|
B|--5b(6)-----5----5\3----3--------------------------|
G|----------------------4------4---4\2---0-----0-----|
D|------------------------------------------2--------|
A|---------------------------------------------------|
E|---------------------------------------------------|

[Chorus/Outro]
Am                       C                           G    G  G
I miss the taste of you, red hearts and the dust of june
    Am                       C                                
Oh, I miss the taste of you, red hearts, gone black and blue, the
 D             Dsus      G       B7        C
Only thing you ever do is sigh and cry and cry
Am       C         G     
Hmm    hmm      cry
Suggest correction
Creating personal tab
Creating personal tab
You can edit any tab online and save it as your Personal.

You can edit, replace or remove any tab part or add personal notes – all changes will be seen only by you.

Personal tabs can be accessed anytime from any device, even offline.
Learn more »
comments
print report bad tab
guest
Wanna post a correction for this tab? Suggest correction